Song name
# A B C D E F G H I J K L M N O P Q R S T U V W X Y Z

Flaming Lips - Halloween On The Barbary Coast tab

Riff 1:
e-----------------------------------------------------------------------|
B-----------------------------------------------------------------------|
G--0--2--2-2-4--4-4-5--4h5p4\2--2-2-7--7-7-5--5-5-4--4h5p4\2------------|
D-----------------------------------------------------------------------|
A-----------------------------------------------------------------------|
E-----------------------------------------------------------------------|

Riff 2:
e--5--3--2------5--3--2-----5--3--2--7---5---5--3--2--------------------|
B-----------3------------3----------------------------3-----------------|
G-----------------------------------------------------------------------|
D-----------------------------------------------------------------------|
A-----------------------------------------------------------------------|
E-----------------------------------------------------------------------|

Riff 3:
e--5--3--2------5--3--2-----5--3--2--7---5---10--9--7--5----------------|
B-----------3------------3----------------------------------------------|
G-----------------------------------------------------------------------|
D-----------------------------------------------------------------------|
A-----------------------------------------------------------------------|
E-----------------------------------------------------------------------|

Intro: Riff 1 x4

D
Well, the retards laughed
When the evening came
The 'librium makes them
All the same
And boy, you still got
Shit for brains
It's Halloween on the coast again

Riff 2
Riff 3

D
Well the clowns roll in
And the line never ends
We get the last part
We get the bends
And the bends always last
Till the blast
And they sucked us down in the hole again

         Bm               G
And it's Halloween on the Barbary Coast
   Riff 1
Ah-Oh

Riff 1 x3

Bm  G   D

Riff 1

D
Well, the mothers smiled
When the morning came
Under the Christmas tree
They looked all the same
And boy, you still got
Shit for brain
And it's Halloween all over again

         Bm               G
And it's Halloween on the Barbary Coast
         Bm               G
And it's Halloween on the Barbary Coast
   Riff 1
Ah-Oh

Riff 1

   Riff 1 and Riff 2
Ah-Oh
   Riff 1 and Riff 3
Ah-Oh

Riff 1 and Riff 2
Riff 1 and Riff 3
Tap to rate this tab
# A B C D E F G H I J K L M N O P Q R S T U V W X Y Z