Song name
# A B C D E F G H I J K L M N O P Q R S T U V W X Y Z

Flaming Lips - In The Morning Of The Magicians chords

Highlighted       Show chord diagrams
               C11   G
e----0--1--3----5----3-------------------------------------------------|
B-3--3--3--3----6----3-------------------------------------------------|
G-0--0--0--0----5----4-------------------------------------------------|
D-0--0--0--0----0----5-------------------------------------------------|
A-0--------0---------5-------------------------------------------------|
E--------------------3-------------------------------------------------|

C                         G                   C 
      In the morning I'd awake and couldn't remember

                         G                      C
What is love and what is hate? The calculations error

F
Oh oh oh

Dm                       G         C
   What is love and what is hate? And why does it matter?

Dm                G          C
Is to love just a waste? And how can it matter?

Dm    
   Oh oh ooh  Oh oh ooh

               C11   G
e----0--1--3----5----3-------------------------------------------------|
B-3--3--3--3----6----3-------------------------------------------------|
G-0--0--0--0----5----4-------------------------------------------------|
D-0--0--0--0----0----5-------------------------------------------------|
A-0--------0---------5-------------------------------------------------|
E--------------------3-------------------------------------------------|

C                          G                   C
      As the dawn began to break - I had to surrender

                           G                     C
The universe will have its way - too powerful to master

F
Oh oh oh

Dm                         G         C
  What is love and what is hate? And why does it matter?

Dm                G          C
Is to love just a waste? And how can it matter?

Dm    G  C   Dm      G
Oh oh ooh          Oh oh ooh


               C11   G
e----0--1--3----5----3-------------------------------------------------|
B-3--3--3--3----6----3-------------------------------------------------|
G-0--0--0--0----5----4-------------------------------------------------|
D-0--0--0--0----0----5-------------------------------------------------|
A-0--------0---------5-------------------------------------------------|
E--------------------3-------------------------------------------------|
Tap to rate this tab
# A B C D E F G H I J K L M N O P Q R S T U V W X Y Z