Song name
# A B C D E F G H I J K L M N O P Q R S T U V W X Y Z

Flaming Lips - In The Morning Of The Magicians tab

Help us improve GuitareTab! Take a short survey!
"In The Morning Of The Magicians"
The Flaming Lips
from "Yoshimi Battles The Pink Robots"
tabbed by arlen b, 04/22/03
website: http://www.geocities.com/kingoftheeskimos

standard tuning

chords used:
 Cadd9  G     F     Dm
e-0-----3-----1-----1--------------------------------------------------
B-3-----0-----1-----3--------------------------------------------------
G-0-----0-----2-----2--------------------------------------------------
D-2-----0-----3-----0--------------------------------------------------
A-3-----2-----3--------------------------------------------------------
E-------3-----1--------------------------------------------------------

intro:

B-3--5--6--8--10----(13---12---13--12-10)-x2---------------------------

verse:

Cadd9                     G                   Cadd9
      In the morning I'd awake and couldn't remember

                         G                      Cadd9
What is love and what is hate? The calculations error

   F
Oh oh oh


use this lead, w/ variation, throughout the song:
e----------12----------------------------------------------------------
B-------13----15-13----------------------------------------------------
G-12-14-------------14-12----14-12-------------------------------------
D----------------------------------------------------------------------
A----------------------------------------------------------------------
E----------------------------------------------------------------------


chorus:

Dm                       G         Cadd9
What is love and what is hate? And why does it matter?

Dm                G          Cadd9
Is to love just a waste? And why does it matter?

Dm    G  Cadd9   Dm      G
Oh oh ooh          Oh oh ooh


and that's pretty much the whole song; it just repeats itself several
times with different lyrics, which i have attached below.

As the dawn began to break - I had to surrender
The universe will have its way - too powerful to master
Oh oh oh
What is love and what is hate?
And why does it matter? Is to love just a waste?
Why does it matter? Oh - oh - ooh - ???
Related for In The Morning Of The Magicians tab