Guitaretab - guitar tabs
Song name
# A B C D E F G H I J K L M N O P Q R S T U V W X Y Z

Flaming Lips - Do You Realise tab

Do You Realise?
by The Flaming Lips
tabbed by Sierra Martinez
comments to Kuvo81@aol.com

This is only the chorus of this spectacular song.
hope to see more later.

   C			  Em
[ Tab from: http://www.guitaretab.com/f/flaming-lips/38793.html ]
E--00----00----00----00---00----00----00----00----
B--11----11----11----11---00----00----00----00----
G--00----00----00----00---00----00----00----00----
D--22----22----22----22---22----22----22----22----
A-----33----33----33----33---22----22----22----22-
E-------------------------------------------------

     Am			    D

E----00----00----00----00---22----22----22----22----
B----11----11----11----11---33----33----33----33----
G----22----22----22----22---22----22----22----22----
D----22----22----22----22------00----00----00----00-
A-------00----00----00----00------------------------
E---------------------------------------------------
Related for Do You Realise tab
Advertisement will be closed in 10 seconds