Song name
# A B C D E F G H I J K L M N O P Q R S T U V W X Y Z

Flaming Lips - Approaching Pavonis Mons By Balloon tab

The Flaming Lips

Approaching Pavonis Mons by Balloon (Utopia Planitia)

Regular Tuning

00:11
e|----------------------------|
B|----------------------------|
G|----------------------------|
D|----------------------------|
A|-7/-------------------------|
E|---3---------5---3--0--3----|
00:22
|----------------------------|
|----------------------------|
|----------------------------|
|----------------------------|
|----------------------------|
|-0/3----------5--7---0---3--|
00:33
|----------------------------|
|----------------------------|
|----------------------------|
|----------------------------|
|--------------5--7----------|
|-0/2/5----5h7------2/5------|
00:45
|----------------------------|
|----------------------------|
|----------------------------|
|----------------------------|
|-5h7-------------2-4p2h4----|
|-----0-2/5--2p0h2---------5-|
00:56
|----------------------------|
|----------------------------|
|----------------------------|
|----------------------------|
|----------------------------|
|-3-0---0--3///7--0----------|
01:10
|----------------------------|
|----------------------------|
|----------------------------|
|----------------------------|
|-7/-------------------------|
|---3--0-----0--3///7--0-----|
01:19
|----------------------------|
|----------------------------|
|----------------------------|
|----------------------------|
|------------------5---5--9--|
|-2///5--7--5--5h7---------5-|
01:31
|------------------------------|
|------------------------------|
|------------------------------|
|------------------------------|
|---------2--4--6--------------|
|-2/7-------------4---7--9--7--|

|----------------------------|
|----------------------------|
|----------------------------|
|----------------------------|
|----------------------------|
|-5-3-0--5-0--3-0--5-0-------|


Actually, I cant figure out the rest of
the song because its so freaking hard
with the jazz section playing. So, if
there is a better tabber out there please
finish the song. And please rate this one
anyways too, people. The rythyms are easy
to work out if you listen to the song.
Extra Bonus:
SONG ENDING!
Tap to rate this tab
# A B C D E F G H I J K L M N O P Q R S T U V W X Y Z