Song name
# A B C D E F G H I J K L M N O P Q R S T U V W X Y Z

Flaming Lips - Turn It On tab

THE FLAMING LIPS

TURN IT ON - Track 1 on the album TRANSMISSIONS FROM THE SATELLITE HEART
Standard Tuning (EADGBe)


Intro on Acoustic Guitar - D A G D

Then:

D                       A
 Put your face up to the window
G                       D
 Tell me all about your gay folks
D                            A
 It feels better when you're in it
G                          D
 If you're nervous use the pay phone

Then the verse riff comes in:
   D                            A
e------------------------------------------------------------|
B------------------------------------------------------------|
G--7--x-x-7--x-x-6-7-x-x-7--x-x------------------------------|
D--7--x-x-7--x-x-6-7-x-x-7--x-x-7--x-x-7--x-x-6-7-x-x-7--x-x-|
A--5--x-x-5--x-x-4-5-x-x-5--x-x-7--x-x-7--x-x-6-7-x-x-7--x-x-|
E-------------------------------5--x-x-5--x-x-4-5-x-x-5--x-x-|

   G                            D
e------------------------------------------------------------|
B------------------------------------------------------------|
G-------------------------------7--x-x-7--x-x-6-7-x-x-7--x-x-|
D--5--x-x-5--x-x-4-5-x-x-5--x-x-7--x-x-7--x-x-6-7-x-x-7--x-x-|
A--5--x-x-5--x-x-4-5-x-x-5--x-x-5--x-x-5--x-x-4-5-x-x-5--x-x-|
E--3--x-x-3--x-x-2-3-x-x-3--x-x------------------------------|


Chorus goes:

  D  G          D
e-----------------------|
B-----------------------|
G-7-------------7-------| x3
D-7--5-------5--7-------|
A-5--5-------5--5-------|
E----3-------3----------|

   A
e-----------------------|
B-----------------------|
G-----------------------|
D--7--------------------|
A--7--------------------|
E--5--------------------|

Here are the lyrics:

Verse 1:

Put your face up to the window
Tell me all about your gay folks
It feels better when you're in it
If you're nervous use the pay phone

Verse 2:

Put your face where we can see it
Put it on a show on cable
You can really show it all there
Turn it on when you are able

Chorus:

Turn it on
Turn it on and all the way up
Turn it on
In your houses when you wake up
Turn it on
When you ain't got no relation
To all those other stations
Turn it on

Verse 3:

Put your life into a bubble
We can pick you up on radar
Hit a satelite with feeling
Give the people what they pay for


Tabbed by Patrick Lucas, 11/11/2007
Tap to rate this tab
 
# A B C D E F G H I J K L M N O P Q R S T U V W X Y Z