Song name
# A B C D E F G H I J K L M N O P Q R S T U V W X Y Z

Flaming Lips - Lightning Strikes The Postman tab

Verse:

E------3-----3--5--------3-----3--5---|
A---5--5--7--5--7-----5--5--7--5--7---|
D---7--5--9--5--7-----7--5--9--5--7---|
G---7--4--9--4--6-----7--4--9--4--6---|
B---7--3--9--3--5-----7--3-----3--5---|
E------3-----3--5--------3-----3--5---|

------3-----3--|
---5--5--7--5--|
---7--5--9--5--|
---7--4--9--4--|
---7--3--9--3--|
------3-----3--|

or if you dont feel like doing the barre chords D, G, E, G, A 2X thenD,G,E,G

Chorus:

E----3-5---|
A-7--5-7-5-|
D-9--5-7-7-| 3X            or E G A D
G-9--4-6-7-|
B-9--3-5-7-|
E----3-5---|

Bridge:

A E A G# F# A
Tap to rate this tab
# A B C D E F G H I J K L M N O P Q R S T U V W X Y Z