Guitaretab - guitar tabs
Song name
# A B C D E F G H I J K L M N O P Q R S T U V W X Y Z

Flaming Lips - Wand tab

-------------------------------------------------------------------------------
			     The W.A.N.D - Flaming Lips
-------------------------------------------------------------------------------
 Tabbed By: excalibur672 
 Email: excalibur627@hotmail.com


Standard Tuning

Intro:
Riff A
e|---------------------------------------------------------|
B|---------------------------------------------------------|
G|---------------------------------------------------------|
D|---------------------------------------------------------|
A|-5-5-4h5p4-----5-5-4h5p4------5-5-4h5p4----3-3-2h3p2-----|
E|-----------5v------------5v-------------5v------------3v-| x 2


Riff B
e|-----------------------------|
B|-----------------------------|
G|-----------------------------|
D|-----------------------------|
A|-8-8-8-5--8-8-8-7~~----------|
E|-----------------------------| x 2
[ Tab from: http://www.guitaretab.com/f/flaming-lips/68335.html ]
Main Riff:
e|---------------------------------------------------|
B|---------------------------------------------------|
G|---------------------------------------------------|
D|---------------------------------------------------|
A|--5-5-4h5p4----5-5-4h5p4---4-4-4h5p4---4-4-4h5p4---|
E|------------5------------5----------5------------5-| x 4

Riff B x 2

Fill A
e|---------------------------------|
B|---------------------------------|
G|---------------------------------|
D|---------------------------------|
A|-5-5-4h5p4-----------3-3-2h3p2---|
E|-----------5-------------------3-|

Main Riff x 4

Riff B x 1

Intro Riff A x 2

Bridge:
e|------------------------------------------|
B|------------------------------------------|
G|------------------------------------------|
D|------------------------------------------|
A|-8- x 16 --10 x 16 -0/-12 x 15 -13 x 16 --|
E|------------------------------------------|

Riff B x 2 


| /  slide up
| \  slide down
| h  hammer-on
| p  pull-off
| ~  vibrato
| +  harmonic
| x  Mute note
===============================================================================
Related for Wand tab
Advertisement will be closed in 10 seconds