Song name
# A B C D E F G H I J K L M N O P Q R S T U V W X Y Z

Flaming Lips - Free Radicals tab

Artist: The Flaming Lips
Album: At War With The Mystics
Song: Free Radicals

It's best to use a fuzz pedal or something similar.
Tempo = 72

Main Riff

Part 4/4
|-----------------|----------------|
|-----------------|----------------|
|-----------------|----------------|
|-----------------|----------------|
|-----------------|----------------|
|-7--7------------|-5-5-5-####-X---|

Part 5/4
|-----------------|----------------|
|-----------------|----------------|
|-------4h22------|------4h2X------|
|--------------22-|--------------2-|
|-----------2h4---|----------2h44--|
|-0-0-X-----------|-0-0------------|
Tap to rate this tab
# A B C D E F G H I J K L M N O P Q R S T U V W X Y Z