Song name
# A B C D E F G H I J K L M N O P Q R S T U V W X Y Z

Flaming Lips - Pompeii Am Gutterdmmerung tab

-------------------------------------------------------------------------------
			     Pompeii Am Götterdämmerung - The Flaming Lips
-------------------------------------------------------------------------------
Tabbed by: Sean Dufty
Email: seandufty@hotmail.com

Tuning: EADGBe (Standard)

Chords used:	D:     xx0232
		Am:    x02210
		Bb:    x1333x
		Fmaj7: 133210
		Asus4: x0223x
		A:     x02220
		Dm:    xx0231
		Dsus4: xx0233



(main chord pattern goes through once at beginning)


D                                   Am
Running to the station holding hands
Bb                             Fmaj7
Now the volcano is flowing red
Asus4                      A          Dm       Dsus4
Something there will change us into sand


(repeat chord pattern)


D                                Am
Now we'll be forever holding hands
Bb                               Fmaj7
Lava and tephra will form our bed
Asus4         A                    Dm
Now the royal flames of Pompeii bless,
              Fmaj7
All our senses
              Bb
All our senses
              Asus4     A
All our senses


(repeat main chord pattern)


Guitar melody in outro:

e|--10--------10----10--------10-----8--------8----8-------8-----------------|
B|-----7-10-7----------7-10-7------------10-----------10---------------------|
G|-------------------------------------9----9-------9----9-------------------|
D|---------------------------------------------------------------------------|
A|---------------------------------------------------------------------------|
E|---------------------------------------------------------------------------|

e|--10----------10---10----------10----8--------8----8--------8--------------|
B|--------10---------------10--------------10------------10------------------|
G|-----10----10---------10----10---------9----9--------9----9----------------|
D|---------------------------------------------------------------------------|
A|---------------------------------------------------------------------------|
E|---------------------------------------------------------------------------|

e|--10--------10----9--------9------5------5-----5---------------------------|
B|-------10-------------10------------6------6-----6-------------------------|
G|-----9----9---------9----9------------7------7-----7-----------------------|
D|---------------------------------------------------------------------------|
A|---------------------------------------------------------------------------|
E|---------------------------------------------------------------------------|

===============================================================================
Tap to rate this tab
 
# A B C D E F G H I J K L M N O P Q R S T U V W X Y Z