Song name
# A B C D E F G H I J K L M N O P Q R S T U V W X Y Z

Flaming Lips - You Have To Be Joking Autopsy Of The Devils Brain tab

Help us improve GuitareTab! Take a short survey!
*** YOU HAVE TO BE JOKING (AUTOPSY OF THE DEVIL'S BRAIN) ***
By The Flaming Lips
From the album Hit to Death in the Future Head
For acoustic guitar (optional extra electric guitar chords)
Version 1.00
Tabbed by Brandon "MajorB" Brown


Intro:
e|----------------3-----------2-3-3-------------3-----------------------2------------------------------------------------------3-------3--|
B|----------------0-----------3-0-0-------------0-----------------------3---------------------------------0---0----------------0-------0--|
G|----------------0-----------2-0-0-------------0-----------------------2-------------------------------0---0---0------0-------0---0---0--|
D|----------------0-----------0-0-0-------------0---------------0-------0---------0---------2-2-------0-----------0------0-----0-0---0-0--|
A|--------2-----2-2---2---2-----2-2---------2---2---2---------2-----------2-----------2---3-----2-------------------2------2---2-------2--|
E|3-3-3-3---3-3---3-3---3---3---3-3-3-3-3-3---3-3-3---3-3-3-3-----3-3-3-----3-3-3---3---3---------3-3-----------------3------3-3-------3--|

Verses 1 and 2:

e|----------2-3-3-------------3-----------------------2------------------------------------------------------3-------3-|
B|----------3-0-0-------------0-----------------------3---------------------------------0---0----------------0-------0-|
G|----------2-0-0-------------0-----------------------2-------------------------------0---0---0------0-------0---0---0-|
D|----------0-0-0-------------0---------------0-------0---------0---------2-2-------0-----------0------0-----0-0---0-0-|
A|--2---2-----2-2---------2---2---2---------2-----------2-----------2---3-----2-------------------2------2---2-------2-|
E|3---3---3---3-3-3-3-3-3---3-3-3---3-3-3-3-----3-3-3-----3-3-3---3---3---------3-3-----------------3------3-3-------3-|

x2

You have to be jokin'
they wouldn't do what you said
Oh my vision
is blurred again

You have to be kiddin' me
they wouldn't do those unspeakable things
oh my Jesus
it's worse than you think

Verse 3:

e|----------3---3-------3-----------------3-------3---------------|
B|--------0-0-----0-----0-------------------0-----0---------------|
G|----------0-----------0-----------0-------------0-----------0---|
D|------0---0-----------0-------------------------0---------------|
A|2---2-----2-------2---2-2---2---2-----------2---2-2---2---2-----|
E|--3-------3-3-------3-3---3---3-----3-3-------3-3---3---3-----3-|

Stood 'ere in the morning
got no science to explain

e|--------------------------------------------|
B|--------------0---0---0---0-----------------|
G|----------------0---0---0---0-------------0-|
D|------------------------------------0-0-0---|
A|3-3-3-2---2-----------------------2---------|
E|--------3---3-----------------3-3-----------|

Seems to me that
God and the Devil
are both the same

Instrumental:

e|----3-------3---3-----------------3-----------3---------3---3-3-----------------------------------------|
B|------------0-----0-----------------0-----------------------------------0-0-----------------0---0---0---|
G|------------0-------0-------------------------------------------------0-----0-------------0---0---0-----|
D|------0-----0---------0---------------------------------------------0---------0-0-------0---------------|
A|--2-----2---2-----------2---2-2-2-----3-2-1-----2-2---2---2-----3-----------------2-------------------2-|
E|3---------3-3-3-----------3-----------------3-------3-------------3-----------------3-3-----------------|


The orchestra section goes something like G D A Em A D G. Try playing it with an
guitar using distortion over the acoustic guitar.

Verse 4:

e|----3-------3---3-----------------3-----------3---------3---3-3---------------------------------------|
B|------------0-----0-----------------0-----------------------------------0-0-----------------0---0---0-|
G|------------0-------0-------------------------------------------------0-----0-------------0---0---0---|
D|------0-----0---------0---------------------------------------------0---------0-0-------0-------------|
A|--2-----2---2-----------2---2-2-2-----3-2-1-----2-2---2---2-----3-----------------2-------------------|
E|3---------3-3-3-----------3-----------------3-------3-------------3-----------------3-3---------------|

The orchestra section goes something like G A E D G A.  Try playing it with an electric 
using distortion over the acoustic guitar.

You have to be lyin'
they wouldn't do what you told me about
oh my vision
is blurred again
is blurred again

Outro:

e|------------------------|
B|------------------0-----|
G|----------------0---0---|
D|------0-------0---------|
A|----2-------2-----------|
E|3-3-----3-3-----------3-|
Related for You Have To Be Joking Autopsy Of The Devils Brain tab