Flash Lightnin - Flash Lightnin tab

Flash Lightnin' - Flash Lightnin'
http://www.myspace.com/flashlightnin

Tabbed by Dave



intro
e|------------------------------------------------------------------------------------------|
B|------------------------------------------------------------------------------------------|
G|------------------------------------------------------------------------------------------|
D|------------------------------------------------------------------------------------------|
A|-------------------9b--------------------10\9--------------------9b--------------------9b-|
E|-12p0-0-0-12-0-0-0-----12p0-0-0-12-0-0-0-------12p0-0-0-12-0-0-0-----12p0-0-0-12-0-0-0----|

(0:38)
e|-----------------------|
B|-----------------------|
G|-999---777---999---777-|
D|-999---777---999---777-|
A|-777---555---777---555-|
E|-----------------------|

e|----------------------|
B|----------------------|
G|----------------------|
D|----------------------| X 10
A|-------------------9b-|
E|-12p0-0-0-12-0-0-0----|
        
e|-----------------------|
B|-----------------------|
G|-999---777---999---777-|
D|-999---777---999---777-|
A|-777---555---777---555-|
E|-----------------------|

(1:20-1:38)            (1:39)
e|---------------|     |----------------------|
B|---------------|     |----------------------|
G|-9999-5555-222-|     |----------------------|
D|-9999-5555-222-| X 8 |----------------------|
A|-7777-3333-000-|     |-------------------9b-| X 16
E|---------------|     |-12p0-0-0-12-0-0-0----|


Guitar 2 (1:25)
e|-------------|     |--------------------------------------|  
B|-10b-11b-15b-| X 4 |-10b-11b-8b-10b-11b-6b-5-/8\3-\1-/5\0-|
G|-------------|     |--------------------------------------|
D|-------------|     |--------------------------------------|
A|-------------|     |--------------------------------------|
E|-------------|     |--------------------------------------|


e|-3-/7\2-\0-/3\0-|
B|-5-/8\3-\1-/5\0-|
G|----------------|
D|----------------|
A|----------------|
E|----------------|


Guitar 1 (2:36)             (2:45)
e|-----------------------| |---------------|
B|-----------------------| |---------------|
G|-999---777---999---777-| |-9999-5555-222-|
D|-999---777---999---777-| |-9999-5555-222-| X 8
A|-777---555---777---555-| |-7777-3333-000-|
E|-----------------------| |---------------|

Guitar 2 (2:45)
e|-------------|     |----------------------------------|  
B|-10b-11b-15b-| X 5 |-10b-11b-8b-10b-11b-6b-10b-11b-6b-|
G|-------------|     |----------------------------------|
D|-------------|     |----------------------------------|
A|-------------|     |----------------------------------|
E|-------------|     |----------------------------------|

e|------------------------------------|
B|------------------------------------|
G|-99999999-11111111-1414141414141414-|
D|------------------------------------|
A|------------------------------------|
E|------------------------------------|

e|-----------------------------------------------------------------------------------------|
B|-----------------------------------------------------------------------------------------|
G|-16-14-11-16-14-11-16-14-11-9-11-14-9-11-14-16-14-11-16-14-11-16-14-11-9-11-14-9-11-14---|
D|-----------------------------------------------------------------------------------------|
A|-----------------------------------------------------------------------------------------|
E|-----------------------------------------------------------------------------------------|


e|------------------------------------------|
B|-10b-12b-13b-15b-17b----------------------|
G|------------------------4444-2222---------|
D|------------------------4444-2222-5555--2-|
A|------------------------2222-0000-5555--2-|
E|----------------------------------3333--0-|




| /   slide up
| \   slide down
| h   hammer-on
| p   pull-off
| b   Bend
Tap to rate this tab
 
# A B C D E F G H I J K L M N O P Q R S T U V W X Y Z