Song name
# A B C D E F G H I J K L M N O P Q R S T U V W X Y Z

Flat Duo Jets - Wild Wild Lover tab

This are the chords for the song.
Hear the song and you will figure out the whole thing by ear.
In the solo you can mess around with the pentatonic scale.

INTRO
E |--------------------------------|
B |--------------------------------|
G |--------------------------------|
D |--------------------------------|
A |-222222-44444-222222--44444-----|
E |-000000-00000-000000--00000-----|

wild wild lover...
E |-0-0-0-0--|
B |-0-0-2-2--|
G |-1-1-1-1--|
D |-2-2-x-x--|
A |-2-2-2-2--|
E |-0-0-0-0--|

jezebel woman...
E |-0-0-3-3--|
B |-2-2-2-2--|
G |-2-2-2-2--|
D |-2-2-2-2--|
A |-0-0-0-0--|
E |----------|

wild wild lover,baby you drove my mind insane.
E |-2-2-2-2-x-3--|
B |-0-0-0-0-x-2--|
G |-2-2-2-2-x-2--|
D |-1-1-1-1-x-2--|
A |-2-2-2-2-x-0--|
E |--------------|
Tap to rate this tab
 
# A B C D E F G H I J K L M N O P Q R S T U V W X Y Z