Song name
# A B C D E F G H I J K L M N O P Q R S T U V W X Y Z

Flat Duo Jets - You Belong To Me tab

C                Em              F
   See the pyramids along the Nile
                         C            F
See the sunset from a tropic isle
               C         Am
Just remember, all the while
 D         G       C
     You belong to me

C                Em              F
   See the market place in old Algiers
                         C     C7     F
Send me photographs and souvenirs
                      C      Am
Just remember when a dream appears
 D        G       C
     You belong to me

LICK:
e|---4---6--4--------------|
B|--4----------------------|
G|-------------------------|
D|-------------------------|
A|-------------------------|
E|-------------------------|

C7                     F
And I'll be so alone without your love
G                       C        Am
Maybe,oh my love,You'll be lonesome and blue
D               G            C    C7 C G
Maybe you'll be lonesome and blue

C                    Em            F
   Fly the ocean in a silver plane
                         C   C7          F
See the jungle when it's wet with rain
                        C      Am
Just remember when i'm  home  again
 D        G       C
     You belong to me

C7                     F
And I'll be so alone without your love
G                       C        Am
Maybe,oh my love,You'll be lonesome and blue
D               G            C    C7 C G
Maybe you'll be lonesome and blue

SOLO:
e|---0------------0-0-------------------|
B|---3--5--3------5-0-------------------|
G|-5------------5---------1-1-1-1-------|
D|------------------------2-2-2-2-------|
A|------------------------2-2-2-2-------|
E|------------------------0-0-0-0-------|

e|----------------0----3----------------|
B|-1--0h1p0---1---1----5----------------|
G|-2--------2-----0----3----------------|
D|-3--------------2----5----------------|
A|-3-------------------3----------------|
E|--------------------------------------|

F                        C      Am
 Just remember when i'm  home  again
 D        G       C   Am
     You belong to me
 D7       G       C   Am
     You belong to me
 D        G       C   C7 
     You belong to me
ENDING:
e|-6p4h6p4h6p4h6p4------6---------------|
B|----------------------4---------------|
G|----------------------4---------------|
D|----------------------5---------------|
Tap to rate this tab
 
# A B C D E F G H I J K L M N O P Q R S T U V W X Y Z