Song name
# A B C D E F G H I J K L M N O P Q R S T U V W X Y Z

Flat Duo Jets - Lonely Wolf tab

http://www.youtube.com/watch?v=Kh5xhF1NiLc

This song has a simply chords sequence.
They are A D7 and E.

The solo
                                                               E
E|0-0-0-0-0-0-0-0-0-0s7-7-7-7-0s7-7-7-0-0-0-0-0-0-0-0-0-0-0-0-0-0-0-0-0-|
B|0s5-5-5-0s5-5-5-5-0s8-8-8-8-0s8-8-8-0s5-5-5-5-0s5-5-5-5-5-0-0-0-0-0-0-|
G|----------------------------------------------------------1-1-1-1-1-1-|
D|----------------------------------------------------------2-2-2-2-2-2-|
A|----------------------------------------------------------2-2-2-2-2-2-|
E|----------------------------------------------------------0-0-0-0-0-0-|

                                                                E7
e|0-0-0-0-0-0-0-0-0-0s7-7-7-7-0s7-7-7-0-0-0-0-0-0-0-0-0-0-0------------------|
B|0s5-5-5-0s5-5-5-5-0s8-8-8-8-0s8-8-8-0s5-5-5-5-0s5-5-5-5-5-5-xx-5-xx-5-xx-5-|
G|----------------------------------------------------------7-xx-7-xx-7-xx-7-|
D|----------------------------------------------------------6-xx-6-xx-6-xx-6-|
A|----------------------------------------------------------7-xx-7-xx-7-xx-7-|
E|----------------------------------------------------------0-xx-0-xx-0-xx-0-|
Tap to rate this tab
 
# A B C D E F G H I J K L M N O P Q R S T U V W X Y Z