Song name
# A B C D E F G H I J K L M N O P Q R S T U V W X Y Z

Flatfoot 56 - Carry Em Out tab

This song doesn't have mandolin or bagpipes like their others, but it's pretty easy, so 
fun with this. Just listen to the song to get the rhythm. it should be two guitars, but 
condensed it. it's not 100% accurate, but it sounds ok.

KEY:
/=Slide up
~=vibrato


intro                              verse
e-------------------               -------------------------------------|
B-------------------               -------------------------------------|
G-------------------               -12-12-121212-12-12-121212-----------|
D-/10-10-10-10-10---               -12-12-121212-12-12-121212-12-14-10--|
A-------------------               -10-10-101010-10-10-101212-12-14-10--|
E-------------------x6 (pick slide)---------------------------10-12-8---|x2

---------------------------------------------|
---------------------------------------------|
12-12-121212-12-12-121212--------------------|
12-12-121212-12-12-121212-12-12-121212-14-10-|
10-10-101010-10-10-101010-12-12-121212-14-10-|
--------------------------10-10-101010-12-8--|
Late one night...

chorus
----------------------------------------------------------------|
----------------------------------------------------------------|
----------------------------------------------------------------|
1212121212121212121212121212121210101010101010101010101010101010|
1212121212121212121212121212121210101010101010101010101010101010|
101010101010101010101010101010108-8-8-8-8-8-8-8-8-8-8-8-8-8-8-8-|

solo
play the first part of the verse 2x, than
--------------------|
--------------------|
-12~~~~~~~~---------|
-----------12-14-10-|
--------------------|
--------------------|2x
Tap to rate this tab
# A B C D E F G H I J K L M N O P Q R S T U V W X Y Z