Song name
# A B C D E F G H I J K L M N O P Q R S T U V W X Y Z

Flatfoot 56 - Warriors tab

Tabbed by:
Email:

Tuning:standard

Warriors by Flatfoot 5iftey 6ix

I am pretty sure this is how this awesome song by an awesome band goes. there were no 
on here so i thought i should do it myself. figure out the strumming yourself.

Intro

e|---------------------------------------------------------------------------|
B|---------------------------------------------------------------------------|
G|--------10----------------10-----------------------------------------------|
D|--8-----10-8-----10-8-----10-8-----10--------------------------------------|
A|--8-----8--8-----10-8-----8--8-----10--------------------------------------|
E|--6--------6-----8--6--------6-----8---------------------------------------|

Verse

you pretty much repeat the second part of this the whole song

e|---------------------------------------------------------------------------|
B|---------------------------------------------------------------------------|
G|-------8------------------------8------------------------------------------|
D|-8--8--8----8/6--6--8--8--8--8--8------------------------------------------|
A|-8--8--6----8/6--6--8--8--8--8--6------------------------------------------|
E|-6--6-------6/4--4--6--6--6--6---------------------------------------------|

Chorus

e|---------------------------------------------------------------------------|
B|---------------------------------------------------------------------------|
G|--------------------8--8---------------------------------------------------|
D|--8--8--8--8--6--6--8--8--------repeat 4 times-----------------------------|
A|--8--8--8--8--6--6--6--6---------------------------------------------------|
E|--6--6--6--6--4--4---------------------------------------------------------|

Repeat verse and chorus

Bridge is pretty much the same as the chords as he intro, but different strumming

Chorus final time
Tap to rate this tab
# A B C D E F G H I J K L M N O P Q R S T U V W X Y Z