Flatfoot 56 - Knuckles Up tab

Tabbed By Noah Redmond

Band: Flatfoot 56
Song: Knuckles Up
Album: Knuckles Up

(Mandolin)
Intro:

E|----------------|----------------|----------------|------------|
A|----------------|2-2-2-0-3-0-2---|----------------|------------|
D|22222-4-5-4-2---|----------------|-22222-4-5-4-2--|5-5-5-0-2---|
G|----------------|----------------|----------------|------------|


E|----------------|----------------|----------------|------------|
A|----------------|2-2-2-0-3-0-2---|----------------|------------|
D|22222-4-5-4-2---|----------------|-22222-4-5-4-2--|5-5-5-0-2---|
G|----------------|----------------|----------------|------------|


E|----------------|----------------|----------------|------------|
A|----------------|2-2-2-0-3-0-2---|----------------|------------|
D|22222-4-5-4-2---|----------------|-22222-4-5-4-2--|5-5-5-0-2---|
G|----------------|----------------|----------------|------------|


E|----------------|----------------|----------------|------------|
A|----------------|2-2-2-0-3-0-2---|----------------|------------|
D|22222-4-5-4-2---|----------------|-22222-4-5-4-2--|5-5-5-0-2---|
G|----------------|----------------|----------------|------------|

Transcribed for guitar:


e|----------------|----------------|----------------|------------|
B|----------------|----------------|----------------|------------|
G|----------------|4-4-4-2-5-2-4---|----------------|------------|
D|22222-4-5-4-2---|----------------|22222-4-5-4-2---|-5-5-5-0-2--|
A|----------------|----------------|----------------|------------|
E|----------------|----------------|----------------|------------|


e|----------------|----------------|----------------|------------|
B|----------------|----------------|----------------|------------|
G|----------------|4-4-4-2-5-2-4---|----------------|------------|
D|22222-4-5-4-2---|----------------|22222-4-5-4-2---|-5-5-5-0-2--|
A|----------------|----------------|----------------|------------|
E|----------------|----------------|----------------|------------|


e|----------------|----------------|----------------|------------|
B|----------------|----------------|----------------|------------|
G|----------------|4-4-4-2-5-2-4---|----------------|------------|
D|22222-4-5-4-2---|----------------|22222-4-5-4-2---|-5-5-5-0-2--|
A|----------------|----------------|----------------|------------|
E|----------------|----------------|----------------|------------|


e|----------------|----------------|----------------|------------|
B|----------------|----------------|----------------|------------|
G|----------------|4-4-4-2-5-2-4---|----------------|------------|
D|22222-4-5-4-2---|----------------|22222-4-5-4-2---|-5-5-5-0-2--|
A|----------------|----------------|----------------|------------|
E|----------------|----------------|----------------|------------|

Thanks for choosing my tab and I hope you found what you were looking for.

God bless!
Tap to rate this tab
 
# A B C D E F G H I J K L M N O P Q R S T U V W X Y Z