Song name
# A B C D E F G H I J K L M N O P Q R S T U V W X Y Z

Flatfoot 56 - Bright City tab

Artist: Flatfoot 56
Track: Bright City
Album: Jungle of the Midwest Sea
Tabbed by: Gordriani
Tuning: Standard

I stumbled across this earlier. Just listen to the song for timings and structure etc.


Intro/Verse/Interludes

e|--------|
b|--------|
g|-----8--|
d|--8--8--|
a|--8--6--|
e|--6-----|


Chorus

e|-----------|
b|-----------|
g|-----8-----|
d|--6--8--8--|
a|--6--6--8--|
e|--4-----6--|

Breakdown

e|--------------|   |-----|
b|--------------|   |-----|
g|--3--------5--|   |-----|
d|--3--3--6--5--|   |--8--| (Played on the last time)
a|--1--3--6--3--|   |--8--|
e|-----1--4-----|   |--6--|
Tap to rate this tab
 
# A B C D E F G H I J K L M N O P Q R S T U V W X Y Z