Flatfoot 56 - Ollie Ollie tab

Atrist: Flatfoot 56
Track: Ollie Ollie
Album: Jungle of the Midwest Sea
Tabbed by: Gordriani
Tuning: Standard


Intro/Verse:

e|-----------|
b|-----------|
g|-----6-----|
d|--8--6--6--|
a|--8--4--6--|
e|--6-----4--|

Chorus:

e|--------------|
b|--------------|
g|-----6--------| 
d|--3--6--6--8--|                                  
a|--3--4--6--8--|                                    
e|--1-----4--6--| 

Chorus End:

e|--------|
b|--------|
g|--------|
d|--8--6--|
a|--8--6--|
e|--6--4--|                              

Bridge:

e|---------------------------|
b|---------------------------|
g|-----8--6--8--6------------|
d|--8--8--6--8--6--6--10--8--|
a|--8--6--4--6--4--6--10--8--|
e|--6--------------4--8---6--|

Breakdown Part 1:
e|--------------|
b|--------------|
g|-----6--------|
d|--8--6--6--8--|  Let these notes ring
a|--8--4--6--8--|
e|--6-----4--6--|

Breakdown Part 2: 

e|--------------------|
b|--------------------|
g|--------6-----6-----|
d|--8--6--6--8--6--6--|
a|--8--6--4--8--4--6--|
e|--6--4-----6-----4--|

End on:

e|-----|
b|-----|
g|-----|
d|--8--|
a|--8--|
e|--6--|
Tap to rate this tab
 
# A B C D E F G H I J K L M N O P Q R S T U V W X Y Z