Flatfoot 56 - Amazing Grace tab

Artist | Flatfoot 56
Album | Knuckles Up | 2006
Song | Amazing Grace

Please rate/comment let me know any corrections. Thanks
Andrew709


Bagpipes...

|| INTRO ||

e |------------| 
B |------------| (This is played fast,
G |---8--------| the easiest rhythm to
D |---8-x 29---| play the strokes at
A |---6--------| is 8, 8, 8, 5)
E |------------|

e |---------------------------------------------------------------------|
B |---------------------------------------------------------------------|
G |---8888888-8888888---------8888888-8888888-8888888-------------------|
D |---8888888-8888888-6666666-8888888-8888888-8888888-8888888-8888888---|
A |---6666666-6666666-6666666-6666666-6666666-6666666-8888888-8888888---|
E |-------------------4444444-------------------------6666666-6666666---|

e |---------------------------------------------------------------------|
B |---------------------------------------------------------------------|
G |---8888888-8888888---------8888888-8888888---------8888888-8888888---|
D |---8888888-8888888-6666666-8888888-8888888-8888888-8888888-8888888---|
A |---6666666-6666666-6666666-6666666-6666666-8888888-6666666-6666666---|
E |-------------------4444444-----------------6666666-------------------|


|| VERSE I ||

      ∨ Amazing Grace, how sweet the sound...
e |---------------------------------|
B |---------------------------------|
G |---8--------------8--------------|
D |---8-(let ring)---8-(let ring)---|
A |---6--------------6--------------|
E |---------------------------------|
                     ∧ I once was lost but now...


Amazing Grace, how sweet the sound...
e |---------------------------------------------------------------------|
B |---------------------------------------------------------------------|
G |---8888888-8888888---------8888888-8888888-8888888-------------------|
D |---8888888-8888888-6666666-8888888-8888888-8888888-8888888-8888888---|
A |---6666666-6666666-6666666-6666666-6666666-6666666-8888888-8888888---|
E |-------------------4444444-------------------------6666666-6666666---|

I once was lost but now...
e |---------------------------------------------------------------------|
B |---------------------------------------------------------------------|
G |---8888888-8888888---------8888888-8888888---------8888888-8888888---|
D |---8888888-8888888-6666666-8888888-8888888-8888888-8888888-8888888---|
A |---6666666-6666666-6666666-6666666-6666666-8888888-6666666-6666666---|
E |-------------------4444444-----------------6666666-------------------|


Hey, hey, hey...
e |-------------------------------------|
B |-------------------------------------|
G |---8888888-8888888-------------------|
D |---8888888-8888888-6666666-8888888---| x 4
A |---6666666-6666666-6666666-8888888---|
E |-------------------4444444-6666666---|

|| VERSE II ||

      ∨ Twas Grace that taught...
e |---------------------------------|
B |---------------------------------|
G |---8--------------8--------------|
D |---8-(let ring)---8-(let ring)---|
A |---6--------------6--------------|
E |---------------------------------|
                     ∧ How precious did that...


Praise God...
e |---------------------------------------------------------------------|
B |---------------------------------------------------------------------|
G |---8888888-8888888---------8888888-8888888-8888888-------------------|
D |---8888888-8888888-6666666-8888888-8888888-8888888-8888888-8888888---|
A |---6666666-6666666-6666666-6666666-6666666-6666666-8888888-8888888---|
E |-------------------4444444-------------------------6666666-6666666---|

Praise God...
e |---------------------------------------------------------------------|
B |---------------------------------------------------------------------|
G |---8888888-8888888---------8888888-8888888---------8888888-8888888---|
D |---8888888-8888888-6666666-8888888-8888888-8888888-8888888-8888888---|
A |---6666666-6666666-6666666-6666666-6666666-8888888-6666666-6666666---|
E |-------------------4444444-----------------6666666-------------------|


Hey, hey, hey...
e |-------------------------------------|                    |---------------|
B |-------------------------------------|                    |---------------|
G |---8888888-8888888-------------------|                    |--8------------|
D |---8888888-8888888-6666666-8888888---| x 4  Then end on:  |--8-(let ring)-|
A |---6666666-6666666-6666666-8888888---|                    |--6------------|
E |-------------------4444444-6666666---|                    |---------------|





Tap to rate this tab
 
# A B C D E F G H I J K L M N O P Q R S T U V W X Y Z