Song name
# A B C D E F G H I J K L M N O P Q R S T U V W X Y Z

Flatfoot 56 - Knuckles Up tab

www.flatfoot56.com


----------------------19-19-19-20-19-17-19-|
-17-17-17-19-20-19-17----------------------|
-------------------------------------------|
-------------------------------------------|
-------------------------------------------|
-------------------------------------------|



-------------------------------------------|
-17-17-17-19-20-19-17-20-20----17----------|
----------------------------19-------------|
-------------------------------------------|
-------------------------------------------|
-------------------------------------------|
Tap to rate this tab
# A B C D E F G H I J K L M N O P Q R S T U V W X Y Z