Song name
# A B C D E F G H I J K L M N O P Q R S T U V W X Y Z

Flatt And Scruggs - Foggy Mountain Breakdown tab

      FOGGY MOUNTAIN BREAKDOWN
BY JALMETALROCKER

DUDE CARL THIS IS FOR YOU LEARN IT AND WEE WILL PLAY IT AT SCHOOL AL THE TIME.


                               REPEAT
---3-3-3-3-3-3-3-3-3-3-3------/-----------------------/
---0-1-2-3-3-2-3-3-2-3-3------/-------0----0----------/
-------------------------2-3-0/--------0----0---2-2--0/
------------------------------/0-1-2----2-2--2-----2--/
------------------------------/-----------------------/
------------------------------/-----------------------/


----------------------------------
--------2-3-3-2-3-3---------------
-2---------------------------0----
--2-0--------------------0-2------
----------------------0-2---------
--------------------3-------------


solo

                             REPEAT
-3-5-5-5-5-5-5-5-3-/----------------5-6-6-0-3-/
-------------------/3-4-4-5-5-4-5-5-----------/
-------------------/--------------------------/
-------------------/--------------------------/
-------------------/--------------------------/
-------------------/--------------------------/

-0-------------------3-
--3------------------0-
---2-3-3-0--------0--0-
---------------0-2---0-
------------0-2------2-
-----------3---------3-

repeat the song a few times
Tap to rate this tab
# A B C D E F G H I J K L M N O P Q R S T U V W X Y Z