Song name
# A B C D E F G H I J K L M N O P Q R S T U V W X Y Z

Flaw - Medicate tab

this is cgcfad....

d:-----------------------------|
a:-----------------------------|
f:-----------------------------|
c:000-0-00-0-00-000-0-00xxxxx--|
g:000-0-00-0-00-000-0-00xxxxx--|
c:000-0-00-0-00-000-0-00xxxxx--|

natural harm.
     /  (the 3z)
d:---------------------------:
a:---3-----------------------:
f:---3-----------------------:
c:000-0-00-0-00-000-0-00xxxxx:
g:000-0-00-0-00-000-0-00xxxxx:
c:000-0-00-0-00-000-0-00xxxxx:

d:----------------------------:
a:---3----3-------------------:
f:---3----3-------------------:
c:000-0-00-0-00-000-0-00x--x--:
g:000-0-00-0-00-000-0-00x--x--:
c:000-0-00-0-00-000-0-00x--x--:


d:----------------------------:
a:---3----3--------3----------:
F:---3----3--------3----------:
C:000-0-00-0-00-000-0-00xxxxxx:
G:000-0-00-0-00-000-0-00xxxxxx:
C:000-0-00-0-00-000-0-00xxxxxx:
Tap to rate this tab
# A B C D E F G H I J K L M N O P Q R S T U V W X Y Z