Song name
# A B C D E F G H I J K L M N O P Q R S T U V W X Y Z

Flaw - No Time tab

No Time from Flaw
Tuning: BEADGBe

Intro/Verse(on the left side fo the line is played only the first time)
----|--------------------------------------------|
----|--------------------------------------------|
----|--14h16p14-1616--------161617~-----16h17p16-|
----|----------------14~-------------------------|
----|--------------------------------------------|
-0~-|--------------------00----------00----------|
----|--------------------------------------------|
Last line played as:
-------------------------------|
-------------------------------|
--14h16p14-1616--------161617~-|
----------------14~------------|
-------------------------------|
--------------------00---------|
-------------------------------|

Pre-chorus-verse with heavily distorted chords:
----------------|
----------------|
----------------|
----------------|
----------------|
-7~--3~/5-------|
-5~--1~/3-------|

Fill 1:
----------------|
----------------|
----------------|
----------------|
----------------|
-3-3-0----------|
-1-0-0----------|
 . . .
Chorus
------------------------------|
------------------------------|
------------------------------|
------------------------------|X2
------------------3-3333-3333-|
-77-22-77-22-7722-3-3333-3333-|
-55-00-55-00-5500-1-1111-1111-|
Then:
-------------------------------|
-------------------------------|
-------------------------------|
-------------------------------|
-------------------3-3333-3333-|
-77-22-77-22-3-2-0-3-3333-3333-|
-55-00-55-00-1-0-0-1-1111-1111-|
             . . .
----------------------------------|
----------------------------------|
----------------------------------|
----------------------------------|
------------------3333-3333-------|
-77-22-77-22-7722-3333-3333-3-2-0-|
-55-00-55-00-5500-1111-1111-1-0-0-|
                            . . .
Fill 2
---------|
---------|
---------|
---------|
-7~~-----|
-7~~-----|
-5~~-----|

-play Verse
-play Pre-chorus
-play Fill 1
-play Chorus
-play Verse

End on:
------------------|
------------------|
-16-17-/17-17-----|
--------------14~-|
------------------|
------------------|
------------------|
Tap to rate this tab
# A B C D E F G H I J K L M N O P Q R S T U V W X Y Z