Song name
# A B C D E F G H I J K L M N O P Q R S T U V W X Y Z

Flaw - Only The Strong tab

intro
e(-----------------------------------)
b(-----------------------------------)
g(--55555/4-55555/4-55555/4-55557777-)
d(--55555/4-55555/4-55555/4-55557777-)
a(--33333/2-33333/2-33333/2-33335555-)
D(-----------------------------------)

verse
e(--------------------------------)
b(--------------------------------)
g(--------------------------------)
d(--555554-555554-555554-55557777-)
a(--555554-555554-555554-55557777-)
D(--555554-555554-555554-55557777-)

pre-chorus
e(----------------------------------)
b(----------------------------------)
g(--7-7-7-6-7-7-7-6-7-7-7-6-7-7-7-6-)
d(--7-7-7-6-7-7-7-6-7-7-7-6-7-7-7-6-)
a(--5-5-5-4-5-5-5-4-5-5-5-4-5-5-5-4-)
D(----------------------------------)

chorus 
e(-----------------------)
b(-----------------------)
g(--6-6662-2229-999------)
d(--6-6662-2229-9999-999-)
a(--4-4440-0007-7779-999-)
D(-----------------9-999-)

bridge           (x3)
e(--9------)(--9------5------)(-------------)
b(--9------)(--9------5-5555-)(-------------)
g(-------9-)(----9999--------)(-------9-8-6-)
d(---------)(----------------)(-------9-8-6-)
a(---------)(----------------)(--7777-7-6-4-)
D(---------)(----------------)(-------------)


Tap to rate this tab
# A B C D E F G H I J K L M N O P Q R S T U V W X Y Z