Song name
# A B C D E F G H I J K L M N O P Q R S T U V W X Y Z

Flaw - Final Cry tab

This is the actual tuning, original tab by Crimsonashes.
Tuning: B-E-A-D-G-B-e (7-String standard)

Intro/Verse
|---------------|
|---------------|
|---------------|
|---------------| (x5) Very odd pattern, listen to the song.
|-4--4-4--4-4-4-|
|-4--4-4--4-4-4-|
|-2--2-2--2-2-2-|

|---------------------------------------------|
|---------------------------------------------|
|---------------------------------------------|
|---------------------------------------------|
|----/9----11p9----\4-4----4--4----4--4----4--| (x4)
|----/9----11p9----\4-4----4--4----4--4----4--|
|----/7-----9p7----\2-2----2--2----2--2----2--|

Prechorus

|--------------------------------------|
|--------------------------------------|
|--------------------------------------|
|--------------------------------------|
|----3-3-3---7-7-7h9-9-9p7-7-7-7-\3-\2-| (x2)
|----3-3-3---7-7-7h9-9-9p7-7-7-7-\3-\2-|
|----3-3-3---7-7-7h9-9-9p7-7-7-7-\3-\2-|

Chorus and the rest have not been tabbed.
Sorry guys, I'm just putting what Crimsonashes had in the correct tuning.

Tap to rate this tab
 
# A B C D E F G H I J K L M N O P Q R S T U V W X Y Z