Song name
# A B C D E F G H I J K L M N O P Q R S T U V W X Y Z

Flaw - Best I Am tab

Tabbed by:   Shea Morris
Email: m_s_morris@yahoo.com

Sounds right when tuned standard dropped to D



Intro...
|---------------------------------------------------------------------------|
|---------------------------------------------------------------------------|
|-------7---9----9h7-----------7---9----9h7-------4---6---7-6----6-7-6------|
|-------------7-----7-----------------7------------------------44-4-4--4----|
|-----5---5------------------5---5--------------2---2---2-------------------|
|---------------------------------------------------------------------------|

Chorus..
|0-0-0-0-0-0-0-0-0-0-0-0-0-0-0-0-0-0-0-----9--9--9--9--9--9--9--9--9--9--9--|
|3-3-3-3-3-3-3-3-3-3-3-3-3-3-3-3-3-3-3-----9--9--9--9--9--9--9--9--9--9--9--|
|2-2-2-2-2-2-2-2-2-2-2-2-2-2-2-2-2-2-2-----11-11-11-11-11-11-11-11-11-11-11-|
|0-0-0-0-0-0-0-0-0-0-0-0-0-0-0-0-0-0-0-----11-11-11-11-11-11-11-11-11-11-11-|
|0-0-0-0-0-0-0-0-0-0-0-0-0-0-0-0-0-0-0-----9--9--9--9--9--9--9--9--9--9--9--|
|0-0-0-0-0-0-0-0-0-0-0-0-0-0-0-0-0-0-0-----9--9--9--9--9--9--9--9--9--9--9--|



Verse 1 is the intro..Verse 2 goes as follows..(Strummed) 

|--------5---------------------------2--------------------------------------|
|--------5---------------------------2--------------------------------------|
|--------7---------------------------4--------------------------------------|
|--------7---------------------------4--------------------------------------|
|--------5---------------------------2--------------------------------------|
|---------------------------------------------------------------------------|
 "Things happened so quickly..some people just go .."

Bridge..
|---------------------------------------------------------------------------|
|---------------------------------------------------------------------------|
|---------------------------------------------------------------------------|
|-0-0--x-x-0-0-0-x-x---0-0-x-x-0-0-0-x-x-x--9-9-x-x-9-9-9-x-x-9-9-x-x-9-9-9-|
|-0-0--x-x-0-0-0-x-x---0-0-x-x-0-0-0-x-x-x--9-9-x-x-9-9-9-x-x-9-9-x-x-9-9-9-|
|-0-0--x-x-0-0-0-x-x---0-0-x-x-0-0-0-x-x-x--9-9-x-x-9-9-9-x-x-9-9-x-x-9-9-9-|
                                        

| /  slide up
| \  slide down
| h  hammer-on
| p  pull-off
| ~  vibrato
| +  harmonic
| x  Mute note
Tap to rate this tab
# A B C D E F G H I J K L M N O P Q R S T U V W X Y Z