Song name
# A B C D E F G H I J K L M N O P Q R S T U V W X Y Z

Flaw - Decide tab

This is only a part of the tab, im still studying it


	verse-C G D E
        chorus- E D C


riff 1
e|-----------------|
b|-----------------|
g|---------2p0-----|
d|------------4h5--|
a|-------2-------5-|
e|-3--5------------|


riff 2
e|-----------------|
b|-------------3p0-|
g|---------2p0-----|
d|-----------------|
a|-------2---------|
e|-3--5------------|


C - G - riff 1 - D - E
C - G - riff 2 - D - E
chorus


This is only a part of the tab, im still studying it


	verse-C G D E
        chorus- E D C


riff 1
e|-----------------|
b|-----------------|
g|---------2p0-----|
d|------------4h5--|
a|-------2-------5-|
e|-3--5------------|


riff 2
e|-----------------|
b|-------------3p0-|
g|---------2p0-----|
d|-----------------|
a|-------2---------|
e|-3--5------------|


C - G - riff 1 - D - E
C - G - riff 2 - D - E
chorus

This is only a part of the tab, im still studying it


	verse-C G D E
        chorus- E D C


riff 1
e|-----------------|
b|-----------------|
g|---------2p0-----|
d|------------4h5--|
a|-------2-------5-|
e|-3--5------------|


riff 2
e|-----------------|
b|-------------3p0-|
g|---------2p0-----|
d|-----------------|
a|-------2---------|
e|-3--5------------|


C - G - riff 1 - D - E
C - G - riff 2 - D - E
chorus

This is only a part of the tab, im still studying it


	verse-C G D E
        chorus- E D C


riff 1
e|-----------------|
b|-----------------|
g|---------2p0-----|
d|------------4h5--|
a|-------2-------5-|
e|-3--5------------|


riff 2
e|-----------------|
b|-------------3p0-|
g|---------2p0-----|
d|-----------------|
a|-------2---------|
e|-3--5------------|


C - G - riff 1 - D - E
C - G - riff 2 - D - E
chorus
Tap to rate this tab
# A B C D E F G H I J K L M N O P Q R S T U V W X Y Z