Song name
# A B C D E F G H I J K L M N O P Q R S T U V W X Y Z

Flaw - Recognize tab

Help us improve GuitareTab! Take a short survey!
E---------------------------------------------|
B---------------------------------------------|
G--12-11-11h12-14-12-11-----------------------|
D-----------------------12-9-14-14-9h10-9-8-9-|   (x2)
A---------------------------------------------|
E---------------------------------------------|

E---------------------------------------------|
B---------------------------------------------|
G--12-11-1h12-14-12-11------------------------|
D----------------------12-9-14-9h10-9-8-9-----|   (x2)
A---------------------------------------------|
E---------------------------------------------|
Related for Recognize tab