Guitaretab - guitar tabs
Song name
# A B C D E F G H I J K L M N O P Q R S T U V W X Y Z

Flaw - Get Up Again tab

-------------------------------------------------------------------------------
			     GET UP AGAIN - Flaw
-------------------------------------------------------------------------------
Tabbed by: crazydrivr

Tuning: (C#  G#  C#  F#  A#  d#) or for the people that are using a 

chromatic tuner it is: (Db  Ab Db Gb Bb eb)

Intro:  Use Heavy Distortion  and slightly palm mute the intro
eb|--------------------------------------------------------------|
Bb|--------------------------------------------------------------|
Gb|--------------------------------------------------------------|Guitar 1
Db|--------------------------------------------------------------|
Ab|--------------------------------------------------------------|
Db|-1p0--0-0-1p0--0-0-1p0-0-0-1p0--0-0-1p0--0-0-5p0-0-0-0--------|
          NOTE that the drum part comes in right here /\

eb|--------------------------------------------------------------|
Bb|--------------------------------------------------------------|
Gb|--------------------------------------------------------------|Guitar 1
Db|--------------------------------------------------------------|
Ab|--------------------------------------------------------------|
Db|-1p0--0-0-1p0--0-0-1p0-0-0-1p0--0-0-1p0--0-0-1h3p1p0----------|


NOTE:  Now the drums, bass guitar, and Guitar 2 come in 
Intro Part 2:  Use Heavy Distortion and Guitar 1 slightly palm mutes.
eb|-------------------------------------------------------|
Bb|-------------------------------------------------------|
Gb|-------------------------------------------------------|Guitar 1
Db|-------------------------------------------------------|
Ab|-------------------------------------------------------|
Db|-1p0--0-0-1p0--0-0-1p0-0-0-1p0--0-0-1p0--0-0-5p0-0-0-0-|

eb|-------------------------------------------------------|
Bb|-------------------------------------------------------|
Gb|-------------------------------------------------------|Guitar 2
Db|-1p0--0-0-1p0--0-0-1p0-0-0-1p0--0-0-1p0--0-0-1p0-0-0-0-|
Ab|-------------------------------------------------------|
Db|-------------------------------------------------------|

eb|-----------------------------------------------------|
Bb|-----------------------------------------------------|
Gb|-----------------------------------------------------|Guitar 1
Db|-----------------------------------------------------|
Ab|-----------------------------------------------------|
Db|-1p0--0-0-1p0--0-0-1p0-0-0-1p0--0-0-1p0--0-0-1h3p1p0-|

eb|---------------------------------------------|
Bb|---------------------------------------------|
Gb|---------------------------------------------|Guitar 2
Db|-1p0--0-0-1p0--0-0-1p0-0-0-1p0--0-0-1p0--0-0-|
Ab|---------------------------------------------|
Db|---------------------------------------------|
[ Tab from: http://www.guitaretab.com/f/flaw/67384.html ]
Intro (Heavy Part):  Use Heavy Distortion (do this 2X but on the second time
around, leave all the hammer ons and pull offs at the end off, and replace
them with palm muted 0ís)
Eb|-----------------------------------------------------|
Bb|-----------------------------------------------------|
Gb|-----------------------------------------------------|Guitar 1
Db|-1p0--0-0-1p0--0-0-1p0-0-0-1p0--0-0-1p0---0h1h3p1p0--|
Ab|-1p0--0-0-1p0--0-0-1p0-0-0-1p0--0-0-1p0---0h1h3p1p0--|
Db|-1p0--0-0-1p0--0-0-1p0-0-0-1p0--0-0-1p0---0h1h3p1p0--|
  
  Verse:  Use Heavy Distortion and   Guitar 2 comes in after Guitar 1 plays
its part twice
Eb|----------------------------------------|
Bb|----------------------------------------|
Gb|----------------------------------------|Guitar 1
Db|-1-0---1-0-------1-0---1-0--------------| Play this 4x
Ab|-1-0---1-0-------1-0---1-0--------------|
Db|-1-0---1-0-------1-0---1-0---0-1h3p1p0--|
    X X   X X       X X   X X   

   Verse:  (Guitar 2) Use Heavy Distortion (comes in after Guitar 1 plays twice) 
Eb|--------------------------------------------|
Bb|--------------------------------------------|
Gb|--------------------------------------------|Guitar 2
Db|--------------------------------------------| Play this 4 times
Ab|--------------------------------------------|
Db|-13\12---12-12-13\12---12-12-13\12---12-12--|

  Chorus (1st time) Use Heavy Distortion (Play this part 2 times)
Eb|-------------------------------|
Bb|-------------------------------|
Gb|-------------------------------| Guitar 1
Db|-1p0--0-0-1p0--0-0-1p0--0-(3)--|Notes in ( ) are notes held, not 
Ab|-1p0--0-0-1p0--0-0-1p0--0-(1)--|   Ghost notes
Db|-1p0--0-0-1p0--0-0-1p0--0-(1)--|

Repeat the Verse then:
Chorus: (this is for all of the other Choruses as well as the second one)
Eb|---------------------------------------|
Bb|---------------------------------------|
Gb|---------------------------------------|Play this twice 
Db|-1p0--0-0-1p0--0-0-1p0--0-3-3-3/8-8-8--| 
Ab|-1p0--0-0-1p0--0-0-1p0--0-1-1-1/8-8-8--|
Db|-1p0--0-0-1p0--0-0-1p0--0-1-1-1/8-8-8--|
        
      (NOTE:  Starting from this chorus and on, play this chorus 2 times,
then play the 1st chorus 2 times to make up the choruses)

(For the Interlude just play the part of the verse where both guitars play
at the same time)

Solo:  Use Heavy Distortion and Reverb  (Guitar 2)
Eb|-10-10-10h11p10---10-10-10h11p10---10-10-10h11p10---10-10-10h11p10-|
Bb|-------------------------------------------------------------------|
Gb|-------------------------------------------------------------------|
Db|-------------------------------------------------------------------|
Ab|-------------------------------------------------------------------|
Db|-------------------------------------------------------------------|

Guitar 1 during Solo:  Use Heavy Distortion
Eb|------------------------|
Bb|------------------------|
Gb|------------------------|
Db|-1p0--0-0-1p0--0-0-1p0--|
Ab|-1p0--0-0-1p0--0-0-1p0--|
Db|-1p0--0-0-1p0--0-0-1p0--|

    Do the 2nd chorus pattern again, but start on the notes before slide up to the 8's

The outro is basically the same as the Solo only Guitar 2 kind of fades in longer.

That is it.  I donít think that the chorus is perfect, there might be a guitar 2
in there somewhere, but other than that, I think it sounds good

| /  slide up
| \  slide down
| h  hammer-on
| p  pull-off
| x  Mute note
| () Hold note
============================================================================

Related for Get Up Again tab