Song name
# A B C D E F G H I J K L M N O P Q R S T U V W X Y Z

Flaw - Independance tab

Help us improve GuitareTab! Take a short survey!
Independance from Flaw
Tuning: BEADGBe(7 string) or BEADGB(6 string)
Best listen to the timing for this song well.

Intro(put pause for bass fill after each time played)
-------------------------|
-------------------------|
-------------------------|
-------------------------|
-4-4-2-4-4-2-4-4-2-4-2-5-|
-2-2-0-2-2-0-2-2-0-2-0-3-|
-------------------------|

Main - play the Intro with no pauses in between.

Main 2
----------------------------|
----------------------------|
----------------------------|
----------------------------|
-4444-2-4444-2-4444-2-4-2-5-|
-2222-0-2222-0-2222-0-2-0-3-|
----------------------------|

Verse(release PM near end)
----------------------|
----------------------|
----------------------|
----------------------|
-4-44-4-44-4-44-4-2-5-|
-2-22-2-22-2-22-2-0-3-|
----------------------|
 . .. . .. . .. . . .
------------------------|
------------------------|
------------------------|
------------------------|
-4-44-4-44-4-44-4-2-5-4-|
-2-22-2-22-2-22-2-0-3-2-|
------------------------|
 . .. . .. . .. . . . .

-play Main

Chorus
----------------|
----------------|
------------4~~-|
------------4~~-|
-2~-22--2h4~2~~-|
-2~-22--0h2~----|
-0~-00----------|

-play Main
-play Main 2
-play Verse
-play Main
-play Chorus

Interlude
--------------------------------------|
--------------------------------------|
--------------------------------------|
--------------------------------------|
-5~-2h4-4-4--5~-2424-5424542454245424-|
-3~-0h2-2-2--3~-0202-3202320232023202-|
--------------------------------------|
        . .          ................

-Play Main

Outro
-play 1 Main line then:
---------------------|
---------------------|
---------------------|
---------------------|
-4-4-2-4-4-2-4-4-2-4-|
-2-2-0-2-2-0-2-2-0-2-|
---------------------|
-play 2 Main lines, and let last note ring.
Related for Independance tab