Song name
# A B C D E F G H I J K L M N O P Q R S T U V W X Y Z

Flee The Seen - Broken Thoughts Of Praise tab

This is the first song i tabbed and maybe the only one and truthfully i played along 
the song for fun and figured it out on accident so here you go have fun with it

by the way some of the song i havent figured out yet

Song: Broken Thoughts of Praise
Artist: Flee The Seen
Album: Doubt Becomes The New Addiction

h= hammer on
p= pull off
x= mute
/= slide up
\= slide down

Intro

e|------------------------------------------------------------------| x2
b|------------------------------------------------------------------|
g|----10-10----10-10----10-10---------------------------------------|
d|-00-x--x--00-x--x--00-x--x----------------------------------------|
a|-00-8--8--00-8--8--00-8--8----------------------------------------|
D|-00-------00-------00---------------------------------------------|

Verse

e|------------------------------------------------------------------|x8
b|-9h10-12h13-------------------------------------------------------|
g|------------------------------------------------------------------|
d|------------8-8-8-10-10-10----------------------------------------|
a|------------8-8-8-10-10-10----------------------------------------|
D|------------8-8-8-10-10-10----------------------------------------|

Chorus


e|------------------------------------------------------------------|x6
b|------------------------------------------------------------------|
g|-----10-10-10-----10-10-10-----10-10-10---------------------------|
d|-0-0-x--x--x--0-0-x--x--x--0-0-x--x--x---10-10-10-8-8-8-----------|
a|-0-0-8--8--8--0-0-8--8--8--0-0-8--8--8---10-10-10-8-8-8-----------|
D|-0-0----------0-0----------0-0-----------10-10-10-8-8-8-----------|

the second time you do ^^^
Lead does this, then returns to the rhythm
e|------------------------------------------------------------------|
b|------------------------------------------------------------------|
g|-----14-14-14-----14-14-14-----14-14-14---------------------------|
d|-0-0-x--x--x--0-0-x--x--x--0-0-x--x--x---10-10-10-8-8-8-----------|
a|-0-0-12-12-12-0-0-12-12-12-0-0-12-12-12--10-10-10-8-8-8-----------|
D|-0-0----------0-0----------0-0-----------10-10-10-8-8-8-----------|


Verse
e|------------------------------------------------------------------|x8
b|-9h10-12h13-------------------------------------------------------|
g|------------------------------------------------------------------|
d|------------8-8-8-10-10-10----------------------------------------|
a|------------8-8-8-10-10-10----------------------------------------|
D|------------8-8-8-10-10-10----------------------------------------|

Chorus

e|------------------------------------------------------------------|x6
b|------------------------------------------------------------------|
g|-----10-10-10-----10-10-10-----10-10-10---------------------------|
d|-0-0-x--x--x--0-0-x--x--x--0-0-x--x--x---10-10-10-8-8-8-----------|
a|-0-0-8--8--8--0-0-8--8--8--0-0-8--8--8---10-10-10-8-8-8-----------|
D|-0-0----------0-0----------0-0-----------10-10-10-8-8-8-----------|

the second fourth and sixth times you do ^^^
Lead does this, then returns to the rhythm for the first third and fifth times
e|------------------------------------------------------------------|
b|------------------------------------------------------------------|
g|-----14-14-14-----14-14-14-----14-14-14---------------------------|
d|-0-0-x--x--x--0-0-x--x--x--0-0-x--x--x---10-10-10-8-8-8-----------|
a|-0-0-12-12-12-0-0-12-12-12-0-0-12-12-12--10-10-10-8-8-8-----------|
D|-0-0----------0-0----------0-0-----------10-10-10-8-8-8-----------|


Bridge
this is weird but its a bunch of palm mutes and in between them is
e|--11-11-11-11---------|
b|--11-11-11-11---------|
g|----------------------|
d|----------------------|
a|----------------------|
D|----------------------|

and
e|----------------------|
b|--12h14p12--12h13p12--|
g|----------------------|
d|----------------------|
a|----------------------|
D|----------------------|

enjoy

they way it is tabbed is in order
Tap to rate this tab
# A B C D E F G H I J K L M N O P Q R S T U V W X Y Z