Song name
# A B C D E F G H I J K L M N O P Q R S T U V W X Y Z

Flee The Seen - Do You Think Dallas Is Still In The Slammer tab

     Do You Think Dallas is Still in the Slammer? - Flee the Seen


Tabbed by: Me
Note: Im only about 90% sure on this one
      I did this by ear and by watching them play this live
      if you have any corrections write them out and
      I'll update this if it's good  
      Thanks for the help.

Tuning: Drop dizzle
 
Intro
e|-------------------------------------------------------------------------|
B|-------------------------------------------------------------------------|
G|-------------------------------------------------------------------------|
D|-00--0---------------------7/----00-----------00----------------[x4]-----|
A|-00--0-7p0-8p0-9p0-8p0-7p0-7/----00-8po-8p7p0-00--10p0-10p9p0------------|
E|-00--0---------------------7/----00-----------00-------------------------|
                                   ..           ..
  Part A
e|-------------------------------------------------------------------------|
B|-------------------------------------------------------------------------|
G|--------------15/14--15--14--12--14--12-12-12-12-12-12--7----------------|
D|-000-000-000---x/-x---x---x---x---x---x--x--x--x--x--x--x[x16]-----------|
A|-000-000-000--13/12--13--12--10--12--10-10-10-10-10-10--5----------------|
E|-000-000-000-------------------------------------------------------------|

e|--------------------------------------------|
B|--------------------------------------------|
G|-15--13--12--13--15-15-15-15-15-15--19------|
D|--x---x---x---x---x--x--x--x--x--x---x[x16]-|
A|-13--12--10--12--13-13-13-13-13-13--17------|
E|--------------------------------------------|

e|-------------------------------------------|
B|-------------------------------------------|
G|-15--14--12--14--12-12-12-12-12-12--7------|
D|--x---x---x---x---x--x--x--x--x--x--x[x16]-|
A|-13--12--10--12--10-10-10-10-10-10--5------|
E|-------------------------------------------|

e|--------------------------------------------|
B|--------------------------------------------|
G|-15--13--12--13--15-15-15-15-15-15--19------|
D|--x---x---x---x---x--x--x--x--x--x---x[x32]-|
A|-13--12--10--12--13-13-13-13-13-13--17------|
E|--------------------------------------------|

  Part B ("Dont waste your breath on me, im in control.......") 
e|--------------------------------|
B|--------------------------------|
G|-19-----------------------------|(guitar 1)
D|-----19p0-17p0-19p0-17p0--------|
A|-------------------------19--17-|
E|--------------------------------|

e|-----------------------------------------------|
B|-----------------------------------------------|
G|---------------------------------7--9-10--9--7-|
D|-7-7-------8-8-------10-10-------x--x--x--x--x-|(guitar 2)
A|-7-7[x16]--8-8[x16]--10-10[x16]--5--7--8--7--5-|
E|-7-7-------8-8-------10-10---------------------|
     .         .           .

e|-------------------------------------------|
B|-------------------------------------------|
G|--------------------------7~~--------------|
D|-7-------8-------10-------x~~--------------|(guitar 2)
A|-7[x16]--8[x16]--10[x16]--5~~--------------|
E|-7-------8-------10-------------pick-slide-|
   .       .        .
  
  Part C ("I won't stop, im sad but...")
e|------------------------------------------------------|
B|------------------------------------------------------|
G|-14------12-----10-----9--------14------16-----19-----|
D|--x[x12]--x[x6]--x[x2]-x[x4]-----x[x12]--x[x6]--x[x6]-|
A|-12------10------8-----7--------12------14-----17-----|
E|------------------------------------------------------|

  ("please decide....")
e|-----------------------------------------------------------------|
B|-----------------------------------------------------------------|
G|-14------12-----10-----9-----14----------------------------------|
D|--x[x12]--x[x6]--x[x2]-x[x4]--x[x12]-00--------------------------|
A|-12------10------8-----7-----12------00-7p0-8p0-7p0-8p0-7p0-8p7--|
E|-------------------------------------00--------------------------|
                                       ..
  ("I wont stop, im sad but....")
e|------------------------------------------------------|
B|------------------------------------------------------|
G|-14------12-----10-----9--------14------16-----19-----|
D|--x[x12]--x[x6]--x[x2]-x[x4]-----x[x12]--x[x6]--x[x6]-|
A|-12------10------8-----7--------12------14-----17-----|
E|------------------------------------------------------|

  ("please decide.....")
e|-----------------------------------------------------------------|
B|-----------------------------------------------------------------|
G|-14------12-----10-----9-----14---------7--9-10--9--7------------|
D|--x[x12]--x[x6]--x[x2]-x[x4]--x[x12]----x--x--x--x--x------------|
A|-12------10------8-----7-----12---------5--7--8--7--5------------|
E|-----------------------------------------------------------------|
                                       
  Part D("your stiing right across the room. I wish....")
e|---------------------------------|
B|---------------------------------|
G|-14~~---14-14-14-14--17-17-17-17-|
D|--x~~----x--x--x--x---x--x--x--x-|
A|-12~~---12-12-12-12--15-15-15-15-|
E|---------------------------------|
  
e|------------------------------------------------------------|
B|------------------------------------------------------------|
G|-14-14~~----------14-14-14-14-xxxxxxxx-17-17-17-17-xxxxxxxx-|
D|--x--x~~-00-0000---x--x--x--x-xxxxxxxx--x--x--x--x-xxxxxxxx-|
A|-12-12~~-00-0000--12-12-12-12-xxxxxxxx-15-15-15-15-xxxxxxxx-|
E|---------00-0000--------------------------------------------|

  Part E (interlude/bridge it's hard to really tell with this song)
e|--------------------------------|
B|--------------------------------|
G|-14-14~-------------------------|
D|--x--x~----------------------7/-|
A|-12-12~--7p0-8p0-9p0-8p0-7p0-7/-|
E|-----------------------------7/-|

e|--------------------------------------|
B|--------------------------------------|
G|-14-14----------------9-9-------------|
D|--x--x---8p0-8p7p0----x-x---9p0-9p8p0-|
A|-12-12----------------7-7-------------|
E|--------------------------------------|

e|--------------------------------|
B|--------------------------------|
G|-14-14~-------------------------|
D|--x--x~----------------------7/-|
A|-12-12~--7p0-8p0-9p0-8p0-7p0-7/-|
E|-----------------------------7/-|

e|----------------------------------------|
B|----------------------------------------|
G|-14-14----------------9-9---------------|
D|--x--x---8p0-8p7p0----x-x---10p0-10p9p0-|
A|-12-12----------------7-7---------------|
E|----------------------------------------|

e|-----------------------|
B|-----------------------|
G|-14-14~----------------|
D|--x--x~----------------|
A|-12-12~--7-8-9-8-7-7p8-|
E|-----------------------|

  Part C("I wont stop.....")
e|------------------------------------------------------|
B|------------------------------------------------------|
G|-14------12-----10-----9--------14------16-----19-----|
D|--x[x12]--x[x6]--x[x2]-x[x4]-----x[x12]--x[x6]--x[x6]-|
A|-12------10------8-----7--------12------14-----17-----|
E|------------------------------------------------------|
 
  ("please decide....")
e|-----------------------------------------------------------------|
B|-----------------------------------------------------------------|
G|-14------12-----10-----9-----14----------------------------------|
D|--x[x12]--x[x6]--x[x2]-x[x4]--x[x12]-00--------------------------|
A|-12------10------8-----7-----12------00-7p0-8p0-7p0-8p0-7p0-8p7--|
E|-------------------------------------00--------------------------|
                                       ..
  ("I wont stop....")
e|------------------------------------------------------|
B|------------------------------------------------------|
G|-14------12-----10-----9--------14------16-----19-----|
D|--x[x12]--x[x6]--x[x2]-x[x4]-----x[x12]--x[x6]--x[x6]-|
A|-12------10------8-----7--------12------14-----17-----|
E|------------------------------------------------------|

  ("please decide....")
e|-----------------------------------------------------------------|
B|-----------------------------------------------------------------|
G|-14------12-----10-----9-----14---------7--9-10--9--7------------|
D|--x[x12]--x[x6]--x[x2]-x[x4]--x[x12]----x--x--x--x--x------------|
A|-12------10------8-----7-----12---------5--7--8--7--5------------|
E|-----------------------------------------------------------------|

 The outro is just a bunch of open chords and stuff.  
They don't even play it the exact way 
it is on the cd when they play it live 
so just have fun with the end :]



Tap to rate this tab
 
# A B C D E F G H I J K L M N O P Q R S T U V W X Y Z