Song name
# A B C D E F G H I J K L M N O P Q R S T U V W X Y Z

Flee The Seen - Ill Be Back On Sunday tab

-------------------------------------------------------------------------------
			     SONG NAME i'll be back on sunday - Band Name flee the seen
-------------------------------------------------------------------------------
Tabbed by:the Tezz
Email:the1andonlytezz@hotmail.com

Tuning:e,B,G,D,A,D

hey this is my first ever tab and i would like to know what you think of it so if you 
it is good please comment me, and tell me what you think sounds wrong. im pretty sure most 
it is right though.

guitar 1 intro
e|------------------------------------------------------------------|
b|--0000000-000-000--0000000-000-000-0000000-000-000----------------|
g|--9999999-888-888--9999999-888-888-9999999-888-888----------------|
d|--------------999--------------999-------------999----------------|
a|------------------------------------------------------------------|
D|------------------------------------------------------------------|

e|------------------------------------------------------------------|
b|------------------------------------------------------------------|
g|-9p8-9p8-11p8-9p8-11p8-9p8-11p8-----------------------------------|
d|------------------------------------------------------------------|
a|------------------------------------------------------------------|
D|------------------------------------------------------------------|

e|-------------------------------------------------------------------|
b|-0000000-000-000---------------------------------0000000-000-0-0-0-|
g|-9999999-888-888-9p8-9p8-11p8-9p8-11p8-9p8-11p8--9999999-888-111111|
d|-------------999---------------------------------------------------|
a|-------------------------------------------------------------------|
D|-------------------------------------------------------------------|

e|-------------------------------------------------------------------|
b|-0000000-000--0000000-000-000--------------------------------------|
g|-9999999-888--9999999-888-888--------------------------------------|
d|--------------------------999--------------------------------------|
a|-------------------------------------------------------------------|
D|-------------------------------------------------------------------|


guitar2 intro
e|----------------------------------------------------------------|
b|----------------------------------------------------------------|
g|----------------------------------------------------------------|
d|-7777777-11-11-11-11-11-11-11-22222222222222--------------------| x2
a|-7777777-11-11-11-11-11-11-11-22222222222222--------------------|
D|-7777777-11-11-11-11-11-11-11-22222222222222--------------------|

e|----------------------------------------------------------------|
b|----------------------------------------------------------------|
g|-------------------------------8888888-11111111111111-----------|
d|-7777777-11-11-11-11-11-11-11--8888888-11111111111111-----------|
a|-7777777-11-11-11-11-11-11-11--6666666-9-9-9-9-9-9-9------------|
D|-7777777-11-11-11-11-11-11-11-----------------------------------|

e|----------------------------------------------------------------|
b|----------------------------------------------------------------|
g|----------------------------------------------------------------|
d|-7777777-11-11-11-11-11-11-11-----------------------------------|
a|-7777777-11-11-11-11-11-11-11-----------------------------------|
D|-7777777-11-11-11-11-11-11-11-----------------------------------|

VERSE 1

guitar2

e|----------------------------------------------------------------|
b|----------------------------------------------------------------|
g|-44444444-66666666----------------------------------------------|
d|-44444444-66666666-22222222222222-------------------------------| x2
a|-22222222-44444444-22222222222222-------------------------------|
D|-------------------22222222222222-------------------------------|


e|----------------------------------------------------------------|
b|----------------------------------------------------------------|
g|-44444444-66666666-88888888-1111111111111111--------------------|
d|-44444444-66666666-88888888-1111111111111111--------------------|
a|-22222222-44444444-66666666-9-9-9-9-9-9-9-9---------------------|
D|----------------------------------------------------------------|

e|----------------------------------------------------------------|
b|----------------------------------------------------------------|
g|-44444444-66666666-999999999999999999---------------------------|
d|-44444444-66666666-999999999999999999---------------------------|
a|-22222222-44444444-777777777777777777---------------------------|
D|----------------------------------------------------------------|


verse 1 guitar 1

e|----------------------------------------------------------------|
b|----------------------------------------------------------------|
g|-6-6-9p6-8p6-9p6-11p6-9p6-8h9p8-6-------------------------------|
d|----------------------------------------------------------------| x2
a|----------------------------------------------------------------|
D|----------------------------------------------------------------|

pre chorus guitar 2

e|----------------------------------------------------------------|
b|----------------------------------------------------------------|
g|-6~-4~----------------------------------------------------------|
d|-6~-4~22222222-44444444-----------------------------------------| x2
a|-4~-2~22222222-44444444-----------------------------------------|
D|------22222222-44444444-----------------------------------------|

e|----------------------------------------------------------------|
b|----------------------------------------------------------------|
g|-66666666-44444444----------------------------------------------|
d|-66666666-44444444-222-222-222-222-222-222-222-222--------------|
a|-44444444-22222222-222-222-222-222-222-222-222-222--------------|
D|-------------------222-222-222-222-222-222-222-222--------------|

pre chorus guitar 1

e|----------------------------------------------------------------|
b|-55-9p5-7p5-9p5-10p5-9p5-7h9p7p0--------------------------------|
g|----------------------------------------------------------------|
d|----------------------------------------------------------------| x4
a|----------------------------------------------------------------|
D|----------------------------------------------------------------|

e|----------------------------------------------------------------|
b|----------------------------------------------------------------|
g|-999-999-999-999-999-999-999-999--------------------------------|
d|-xxx-xxx-xxx-xxx-xxx-xxx-xxx-xxx--------------------------------|
a|-777-777-777-777-777-777-777-777--------------------------------|
D|----------------------------------------------------------------|

CHORUS guitar 2

e|----------------------------------------------------------------|
b|----------------------------------------------------------------|
g|----------------------------------------------------------------|
d|-7777777-11-11-11-11-11-11-11-22222222--------------------------|x2
a|-7777777-11-11-11-11-11-11-11-22222222--------------------------|
D|-7777777-11-11-11-11-11-11-11-22222222--------------------------|

e|----------------------------------------------------------------|
b|----------------------------------------------------------------|
g|-------------------------------8888888-11111111111111-----------|
d|-7777777-11-11-11-11-11-11-11--8888888-11111111111111-----------|
a|-7777777-11-11-11-11-11-11-11--6666666-9-9-9-9-9-9-9------------|
D|-7777777-11-11-11-11-11-11-11-----------------------------------|

e|----------------------------------------------------------------|
b|----------------------------------------------------------------|
g|----------------------------------------------------------------|
d|-7777777-11-11-11-11-11-11-11-----------------------------------|
a|-7777777-11-11-11-11-11-11-11-----------------------------------|
D|-7777777-11-11-11-11-11-11-11-----------------------------------|

chorus guitar 1

e|-----------------------------------------------------------------|
b|-0000000-000-000---------------------------------0000000-000-000-|
g|-9999999-888-888-9p8-9p8-11p8-9p8-11p8-9p8-11p8--9999999-888-888-|
d|-------------999---------------------------------------------999-|
a|-----------------------------------------------------------------|
D|-----------------------------------------------------------------|

e|--------------------------------------------------------------|
b|--------------------------------------------------------------|
g|--9p8-9p8-11p8-9p8-11p8-9p8-11p8------------------------------|
d|--------------------------------------------------------------|
a|--------------------------------------------------------------|
D|--------------------------------------------------------------|

e|--------------------------------------------------------------|
b|-0000000-000-0-0-0--0000000-000-000---------------------------|
g|-9999999-888-111111-9999999-888-888---------------------------|
d|--------------------------------999---------------------------|
a|--------------------------------------------------------------|
D|--------------------------------------------------------------|

BRIDGE guitar 1
e|--------------------------------------------|
b|--------------------------------------------|
g|---6-9-8-8---8-9-11-9-8--x------------------|
d|-66-6---9--66----------9-x------------------| x10
a|--------------------------------------------|
D|--------------------------------------------|

e|-------------------------------|
b|----12---12---12---12---12-----|
g|-8h9--8h9--8h9--8h9--8h9-------|
d|-------------------------------|
a|-------------------------------|
D|-------------------------------|

e|----------------------------------------|
b|-9h10p9-9h10p9-9h10p9-9h10p9-12-12-12-12|
g|-------9------9------9------9-----------|
d|----------------------------------------| x3
a|----------------------------------------|
D|----------------------------------------|

e|----------------------------------------|
b|-12-12-12-12-12-12-12-12-12-12-12-12-12-|
g|-9--9--9--9--9--9--9--9--9--9--9--9--9--|
d|----------------------------------------|
a|----------------------------------------|
D|----------------------------------------|

bridge guitar 2

e|-----------------------------------------------|
b|-12-12-12-12-12-12-12-12-10-10-10-10-9-9-9-9x--|
g|-----------------------------------------------|
d|-----------------------------------------------| x6
a|-----------------------------------------------|
D|-----------------------------------------------|

e|--------------------------------------------|
b|--------------------------------------------|
g|-9-9-9-9-9-9-9-9-8-8-8-8--------------------|
d|------------------------9-9-9-9-------------| x12
a|--------------------------------------------|
D|--------------------------------------------|

CHORUS guitar 2

e|----------------------------------------------------------------|
b|----------------------------------------------------------------|
g|----------------------------------------------------------------|
d|-7777777-11-11-11-11-11-11-11-22222222--------------------------| x2
a|-7777777-11-11-11-11-11-11-11-22222222--------------------------|
D|-7777777-11-11-11-11-11-11-11-22222222--------------------------|

e|----------------------------------------------------------------|
b|----------------------------------------------------------------|
g|-------------------------------8888888-11111111111111-----------|
d|-7777777-11-11-11-11-11-11-11--8888888-11111111111111-----------|
a|-7777777-11-11-11-11-11-11-11--6666666-9-9-9-9-9-9-9------------|
D|-7777777-11-11-11-11-11-11-11-----------------------------------|

e|----------------------------------------------------------------|
b|----------------------------------------------------------------|
g|----------------------------------------------------------------|
d|-7777777-11-11-11-11-11-11-11-----------------------------------|
a|-7777777-11-11-11-11-11-11-11-----------------------------------|
D|-7777777-11-11-11-11-11-11-11-----------------------------------|

chorus guitar 1

e|----------------------------------------------------------------|
b|-0000000-000-000---------------------------------0000000-000-000|
g|-9999999-888-888-9p8-9p8-11p8-9p8-11p8-9p8-11p8--9999999-888-888|
d|-------------999---------------------------------------------999|
a|----------------------------------------------------------------|
D|----------------------------------------------------------------|

e|----------------------------------------------------------------|
b|----------------------------------------------------------------|
g|-9p8-9p8-11p8-9p8-11p8-9p8-11p8---------------------------------|
d|----------------------------------------------------------------|
a|----------------------------------------------------------------|
D|----------------------------------------------------------------|

e|----------------------------------------------------------------|
b|-0000000-000-0-0-0--0000000-000-000-----------------------------|
g|-9999999-888-111111-9999999-888-888-----------------------------|
d|--------------------------------999-----------------------------|
a|----------------------------------------------------------------|
D|----------------------------------------------------------------|

| /  slide up
| \  slide down
| h  hammer-on
| p  pull-off
| ~  vibrato
| +  harmonic
| x  Mute note
===============================================================================
http://www.myspace.com/fleetheseen
 www.facedownrecords.com
Tap to rate this tab
# A B C D E F G H I J K L M N O P Q R S T U V W X Y Z