Song name
# A B C D E F G H I J K L M N O P Q R S T U V W X Y Z

Fleet Foxes - Quiet Houses tab

-------------------------------------------------------------------------------
			     "QUIET HOUSES" off album "Fleet Foxes"(2008)
-------------------------------------------------------------------------------
Tabbed by: Les Gibson

Tuning: Standard

--INTRO, acoustic guitar:
I barre the 4th fret on the top 4 strings, and take it from there...

e|--7--------7-------6-------6-------4--------4-------6--------6---|
B|-------5----------------4---------------5----------------4-------|
G|-----6-------6--------4------4--------6-------6--------4-------4-|
D|--4------4---------4-----4---------4------4---------4------4-----|
A|-----------------------------------------------------------------|
E|-----------------------------------------------------------------|

This crops up a few times along the way.

The chords are hard to distinguish here. Just mess around with it; the
above part can be played all the way through and it sounds ok, becuase
thr Foxes use similar interlocking chords.

===============================================================================
Tap to rate this tab
 
# A B C D E F G H I J K L M N O P Q R S T U V W X Y Z