Guitaretab - guitar tabs
Song name
# A B C D E F G H I J K L M N O P Q R S T U V W X Y Z

Fleet Foxes - White Winter Hymnal tab

-------------------------------------------------------------------------------
		 "WHITE WINTER HYMNAL" off album "Fleet Foxes"(2008)
-------------------------------------------------------------------------------
Tabbed by: Les Gibson

Tuning: Standard

--VERSE (after vocal intro)

E
I was following the pack all swallowed in their coats
                                     F#m
with scarves of red tied round their throats 

to keep their little heads from falliní in the snow
                                  A
And I turned íround and there you go

And, Michael, you would fall
              B                    A
and turn the white snow red as strawberries
         E
in the summertime.


--BREAK BETWEEN VERSES:
[ Tab from: http://www.guitaretab.com/f/fleet-foxes/111157.html ]
  E                           A
e|---------------------------|---------------------------|
B|---------------------------|---------------------------|
G|------------------4--------|---------------------------|
D|----------4-6-------6--4---|--4--6-------4-----4-------|
A|---4-6h7------4-7--------7-|-----------------7---7--4--|
E|---------------------------|---------------------------|

  F#m                         E
e|---------------------------|---------------------------|
B|---------------------------|---------------------------|
G|---------------------------|---------------------------|
D|---------------------2-----|---------------------------|
A|-(4)-----------4-2-4---4-2-|----2--4/6--4--------------|
E|---------------------------|--4------------------------|


--VERSE: repeat of before

--BREAK: same as before.   x2  (with added few measures)

--VERSE repeated with just vocals.


well that's it then!



| /  slide up
| \  slide down
| h  hammer-on
| p  pull-off
| ~  vibrato
| +  harmonic
| x  Mute note
===============================================================================
Related for White Winter Hymnal tab