Song name
# A B C D E F G H I J K L M N O P Q R S T U V W X Y Z

Fleet Foxes - Anyone Whos Anyone tab

This is my first tab... so bare with me...
This is off their very first EP which is really great!

Played very fast and throughout about half of the song.


e |-----------------------------------------------------|
B |-----------------------------------------------------|
G |----------------0------------------------------------|
D |---------2-3333--3-2-0000-------0000-----------------| x5
A |----2-3-3-----------------3-2--------3-2-------------|
E |1111--------------------------3-----------2-3--------| 


Played over the picking are the chords F and G back and forth starting at the 4th repeat.

Listen to the song to hear these chord changes.


e |-----------------------------------------------------|
B |-----------------------------------------------------|
G |---------7----5--------------------------------------| x4
D |-----7-4---5----7------------------------------------|
A |-8s5-------------------------------------------------|
E |-----------------------------------------------------|

e |-----------------------------------------------------|
B |-----------------------------------------------------|
G |----------------0------------------------------------|
D |---------2-3333--3-2-0000-------0000-----------------| x2
A |----2-3-3-----------------3-2--------3-2-------------|
E |1111--------------------------3-----------2-3--------| 

e |-----------------------------------------------------|
B |-----------------------------------------------------|
G |---------7----5--------------------------------------| x4
D |-----7-4---5----7------------------------------------|
A |-8s5-------------------------------------------------|
E |-----------------------------------------------------|

e |-----------------------------------------------------|
B |-----------------------------------------------------|
G |----------------0------------------------------------|
D |---------2-3333--3-2-0000-------0000-----------------| x2
A |----2-3-3-----------------3-2--------3-2-------------|
E |1111--------------------------3-----------2-3--------| 


e |-----------------------------------------------------|
B |-----------------------------------------------------|
G |---------7----5--------------------------------------| x4
D |-----7-4---5----7------------------------------------|
A |-8s5-------------------------------------------------|
E |-----------------------------------------------------|

e |-----------------------------------------------------|
B |-----------------------------------------------------|
G |----------------0------------------------------------|
D |---------2-3333--3-2-0000-------0000-----------------| x2
A |----2-3-3-----------------3-2--------3-2-------------|
E |1111--------------------------3-----------2-3--------| 


At about the 2:20 mark the key changes.

e |----------------------------------------------------|
B |----------------------------------------------------|
G |------------------4s7-5-----------------------------| x6
D |--4s7-4-2-0-2-4-0--------7-4-2-0-2-4-0--------------|
A |0---------------------------------------------------|
E |----------------------------------------------------|



I am still figuring out the rest... until then... enjoy!
Tap to rate this tab
# A B C D E F G H I J K L M N O P Q R S T U V W X Y Z