Song name
# A B C D E F G H I J K L M N O P Q R S T U V W X Y Z

Fleet Foxes - Oliver James tab

-------------------------------------------------------------------------------
			        Oliver James - Fleet Foxes
-------------------------------------------------------------------------------
Tabbed by: malectro
Email: malectro@gmail.com
escapesounds.blogspot.com

t = tremelo
b = bend 

Tuning: standard

Intro/Chorus

e|-----------------------------------------------------------------|
B|---------------1--p0---0-----------3---3---3---1---1---1---0-----|
G|-2p0---0-------------2-----0-------------------------------------|
D|-----2-----2-------------------0---------------------------------|
A|-----------------------------------------------------------------|
E|-3-3-3-3-3-3-3-3-3-3-3-3-3-3-3-3-3-3-3-3-3-3-3-3-3-3-3-3-3-3-3-3-|

e|---------------------------------|
B|-1p0---0---------------0---------|
G|-----2-----0-------0-------0-----|
D|---------------0-----------------|
A|---------------------------------|
E|-3-3-3-3-3-3-3-3-3-3-3-3-3-3-3-3-|

Verse

e|-----------------------------------------------------------------|
B|-----------------------------------------------------------------|
G|-----------------0---4---0-------0-------------------0---0---4---|
D|---------0---4---------------4---------4-0-------0---------------|
A|-2-----3-------------------------------------2-------------------|
E|-3-3-3-3-3-3-3-3-3-3-3-3-3-3-3-3-3-3-3-3-3-3-3-3-3-3-3-3-3-3-3-3-|

Bridge

e|-----------------------------------------------------------------|
B|-------0-1---0-------0---1---0---------0-1---0-------------------|
G|-----------------2---------------2---------------2---------------|
D|-----------------------------------------------------3-------3---|
A|---------------------------------------------------------3-------|
E|-1-1-1-1-1-1-1-1-1-1-1-1-1-1-1-1-1-1-1-1-1-1-1-1-1-1-1-1-1-1-1-1-|

e|-----------------------------------------------------------------|
B|---------------------0---------------0---1---1---2---1---0-------|
G|-0---------------0-------0-----------0---0---0---0---0---0---0---|
D|-------4-2---4---------------4-----------------------------------|
A|-3-3-3-3-3-3-3-3-3-3-3-3-3-3-3-3---------------------------------|
E|---------------------------------3-3-3-3-3-3-3-3-3-3-3-3-3-3-3-3-|


| /  slide up
| \  slide down
| h  hammer-on
| p  pull-off
| ~  vibrato
| +  harmonic
| x  Mute note
===============================================================================
Tap to rate this tab
 
# A B C D E F G H I J K L M N O P Q R S T U V W X Y Z