Song name
# A B C D E F G H I J K L M N O P Q R S T U V W X Y Z

Fleet Foxes - In The Hot Hot Rays tab

e------------------------------------------------------------------------|
B---10p8-----------------------------------------------------------------|
G--------10----10p9h10p9h10---7p5h7p5h7--5s2---3p2h3p2h3---7p5h7p5h7-----|
D------------------------------------------------------------------------|
A------------------------------------------------------------------------|
E------------------------------------------------------------------------|


e-------------------------------10------------10--------------------------|
B--------------------9s10---10------8--9--10------8-----------------------|
G---12p10h12p10h12-----------------------------------9---------9----------|
D-------------------------------------------------------8--7-----8--7--7--|
A-------------------------------------------------------------------------|
E-------------------------------------------------------------------------|
Tap to rate this tab
# A B C D E F G H I J K L M N O P Q R S T U V W X Y Z