Song name
# A B C D E F G H I J K L M N O P Q R S T U V W X Y Z

Fleet Foxes - False Knight On The Road tab

fleet foxes - false knight on the road

------------------------------------------------------------------------

*A*
e|----|
B|----|
G|----|
D|0-2-|
A|----|
E|----|

e|--------------------------------|
B|------5-53--0-------------------|
G|0--0----------20-------0------0-|
D|--------------------20----------|
A|--------------------------------|
E|3-3-3-3-3-3-3-3-3-3-3-3-3-3-3-3-|

------------------------------------------------------------------------

*B*
e|------------------------|
B|------5-53--3--0--------|
G|0--0----------------20--|
D|------------------------|
A|------------------------|
E|3-3-3-3-3-3-3-3-3-3-3-3-|

------------------------------------------------------------------------

*C*
e|-----------------2-----------------|
B|----1-----1---------1-----1-----3--|
G|-02----2-----2---------2-----24----| (with variations)
D|-0-0-0-0-0-0-0-0-0-0-0-0-0-0-------|
A|-----------------------------------|
E|-----------------------------------|

------------------------------------------------------------------------

*D*
e|------------------------|            / ------------------------|
B|1--1--0---------0-------|            / 1--1--0---------0-------|
G|--------2-----0-----20--| (in intro) / --------0-----0-----20--| (in verse)
D|-----------0------------|            / -----------2------------|
A|3-3-3-3-3-3-3-3-3-3-3-3-|            / 3-3-3-3-3-3-3-3-3-3-3-3-|
E|------------------------|            / ------------------------|

------------------------------------------------------------------------

*E*
e|----------------|
B|------1---------|
G|---0-----0----0-|
D|2-----------2---|
A|3-3-3-3-3-3-3-3-|
E|----------------|

------------------------------------------------------------------------

*F*
e|------------------------|
B|------5-53--0-----------|
G|0--0----------20--------|
D|--------------------20--|
A|------------------------|
E|3-3-3-3-3-3-3-3-3-3-3-3-|

------------------------------------------------------------------------

*G*
e|------0---------|
B|---1-----1------|
G|0-----------0---| (with variations)
D|----------------|
A|3-3-3-3-3-3-3-3-|
E|----------------|

------------------------------------------------------------------------

*H*
e|--------------------------------|
B|--1--1--0---------1--1--0-------|
G|----------0---------------0-----|
D|------------2-0-------------0-2-|
A|3-3-3-3---------3-3-3-3---------|
E|--------3-3-3-3---------3-3-3-3-|

------------------------------------------------------------------------

*outro*
e|---2---2---2-----2---2---2---2-3-|
B|---1---1-1-------1---1---1---1---|
G|-2---------2-2---2---2---2---2---|
D|-0---0---0-----0---0---0---0-----|
A|---------------------------------|
E|---------------------------------|

e|5-------------3-2-----------2-3--|
B|----1-------1-------1-------1----|
G|----2---2---2-------2---2---2----|
D|0-0---0---0---0-0-----0---0------|
A|---------------------------------|
E|---------------------------------|

e|5-3-------5-3-5--------3---------|
B|------1-----------1------1-----3-|
G|--------------------0------0-----|
D|0---0---0-------0-----0----------|
A|---------------------------------|
E|-----------------------------3---|

------------------------------------------------------------------------

intro    *A* - *B* - *C* - *D* - *E* - *F* - *G* - *H*
verse 1  *A* - *B* - *C* - *D* - *E* - *F* - *G* - *H*
verse 2  *A* - *B* - *C* - *D* - *E* (2x) - *F* - *G* - *H*
verse 3  *A* - *B* - *C* - *D* - *E* (2x) - *F* - *G* - *H* (1,5x)
verse 3  *A* - *B* - *C* - *D* - *E* (2x) - *F* - *G* - *H* (2 x)
verse 4  *A* - *B* - *C* - *D* - *E* (2x) - *F* - *G* - *H* (1,5 x)
outro    *outro*

------------------------------------------------------------------------

lyrics:

oh where will you go so late said the knight on the road
im going to meet my god said the child as he stood
and he stood and he stood and its well that he stood
im going to meet my god said the child as he stood

oh how will you go by land said the knight on the road
with a strong staff in my hand said the child as he stood
and he stood and he stood and its well that he stood
with a strong staff in my hand said the child as he stood
oh...

oh how will you go by sea said the knight on the road
with a good boat underneath said the child as he stood
and he stood and he stood and its well that he stood
with a good boat underneath said the child as he stood
oh oh...

oh i think i hear a bell said the knight on the road
its ringing you to hell said the child as he stood
and he stood and he stood and its well that he stood
its ringing you to hell said the child as he stood
oh oh oh oh oh oh...
oh oh oh oh oh oh...
oh oh oh oh oh oh...

oh where will you go so late said the knight on the road
im going to meet my god said the child as he stood
and he stood and he stood and its well that he stood
im going to meet my god said the child as he stood
oh oh oh oh oh oh...
Tap to rate this tab
# A B C D E F G H I J K L M N O P Q R S T U V W X Y Z