Song name
# A B C D E F G H I J K L M N O P Q R S T U V W X Y Z

Fleet Foxes - Anyone Whos Anyone tab

------Subido por Tomas Belardo------

e]-----------------------------------------------------------------------|
b]-----------------------------------------------------------------------|
G]-----------------------------------------------------------------------|
D]-----------------------2-3-3-3-3--5---3---2----------------------------|
A]------------2-3-3-3-3------------------------5-5-5-5-3--2------5-5-5-5-|
E]---1-1-1-1--------------------------------------------------1----------|


e]-------------------------|
b]-------------------------|
G]-------------------------|
D]-------------------------|             X5
A]--3--2-------------------|
E]--------2-3--------------|
Tap to rate this tab
 
# A B C D E F G H I J K L M N O P Q R S T U V W X Y Z