Song name
# A B C D E F G H I J K L M N O P Q R S T U V W X Y Z

Fleet Foxes - Textbook Love tab

e|-------------------------------------------------------12-----11/9/11-|
B|----------------------------12---12-14---14--------------10-----------|
G|1--1/4---4/6---6/9---9-9---9----------------13/11/13-------11---------|
D|----------------------------------------------------------------------|
A|----------------------------------------------------------------------|
E|----------------------------------------------------------------------|
							                 2X
e|-12-----11----------9--11/9/11---------------------------------------|
B|---10-------------9-------------10-9---------------------------------|
G|-----11---------9--------------------9-8-----------------------------|
D|---------------------------------------------------------------------|
A|---------------------------------------------------------------------|
E|---------------------------------------------------------------------|
Tap to rate this tab
 
# A B C D E F G H I J K L M N O P Q R S T U V W X Y Z