Song name
# A B C D E F G H I J K L M N O P Q R S T U V W X Y Z

Fleet Foxes - Bedouin Dress tab

Violiny type riff

e|----------------------------------------------------|
b|18----------------------18--------------------------|
g|---16----14h16-17p16~------16----14h16-17p16~-------|
d|------15----------------------15--------------------|
a|----------------------------------------------------|
e|----------------------------------------------------|


e|----------------------------------------------------|
b|17----------------------17--------------------------|
g|---16----12h14-16p14~------16----12h14-16p14~-------|
d|------14----------------------14--------------------|
a|----------------------------------------------------|
e|----------------------------------------------------|

e|17----------------------17--------------------------|
b|---17----15h17-19p17~------17----15h17-19p17-15-----|
g|------16----------------------16----------------16~-|
d|----------------------------------------------------|
a|----------------------------------------------------|
e|----------------------------------------------------|

Pretty cool
-danjofish
Tap to rate this tab
 
# A B C D E F G H I J K L M N O P Q R S T U V W X Y Z