Song name
# A B C D E F G H I J K L M N O P Q R S T U V W X Y Z

Fleet Foxes - Blue Spotted Tail tab

E------------------------------------|
A-3---3----3---3----3---3---3---3----|  (Intro x2)
D---2---2----3---3----2---2---2---2--|
G--0---0----2---2----0---0---0---0---|
B----1---1----1---1----1---1---1---1-|
e------------------------------------|

E------------------------------------|
A-3---3----3---3----3---3---3---3----| Why in the night sky are the lights hung
D---2---2----3---3----2---2---2---2--|
G--0---0----2---2----0---0---0---0---| Why is life made only for to end
B----1---1----1---1----1---1---1---1-|
e------------------------------------| In the city only for a while

E-----------------------------------|
A-0---0---2---2---3---3---3---3-----| Why is the earth moving round the sun
D---2---2---2---2---3---3---3---3---|
G--2---2---0---0---2---2---2---2----| Why do I do all this waiting then
B----1---1---0---0---1---1---1---1--|
e-----------------------------------| Here to face the fortune and the bile



E-----------------------------------| Floating in the vacuum with no purpose
A-----------------3---3---0---0-----| Not a one
D-0---0---3---3-----2---2---2---2---|
G---2---2---2---2--0---0---2---2----| Why this frightend part of me fated to
B--3---3---1---1-----1---1---1---1--| pretend
e----1---1---0---0------------------|
                                     I heard you on the radio I couldn't
                                     Help but smile



E-----------------------------------|
A-3---3----3---3--------------------|               Why in the night sky are the lights
D---2---2----3---3------------------|
G--0---0----2---2-0-----------------|               why is life made only for to
B----1---1----1----1----------------|
e-----------------------------------|               In this city only for a

E------------------3---3----1---1----|
A-0---0-2--3---2-0---2---2----3---3--| hung , woah oh oh, woah oh oh
D---2---------2----------------------|
G--2---2-2--0---0-0-0-0-0-0--2-2-2-2-| end , woah oh oh, woah oh oh
B----1---------1------3---3----0---0-|
e------------------------------------| while , woah oh oh, woah oh oh


E----------|
A-3---3----| (x8)
D---2---2--|
G--0---0-0-|
B----1---1-|
e----------|
Tap to rate this tab
# A B C D E F G H I J K L M N O P Q R S T U V W X Y Z