Song name
# A B C D E F G H I J K L M N O P Q R S T U V W X Y Z

Fleet Foxes - The Shrine An Argument tab

the shrine/an argument by fleet foxes

standard tuning
EADGBe

capo on 6th fret

G6/A  x05x5x (actually: G6sus2/A)
Dm    x03x3x Am    x02x1x
C4    3x3x1x (actually: Csus4)
Em/G  3x2x0x D/A   x04x3x
G     3x0x0x F     x3321x
A     x7765x E     x76x5x
D     x54x3x

intro
    G6/A (arpeggio picking)
A#|---------------------------------------------------------------------|
F |---5---5---5---5----5---5---5---5----5---5---5---5----5---5---5---5--|
C#|---------------------------------------------------------------------|
G#|--5---5---5---5----5---5---5---5----5---5---5---5----5---5---5---5---|
D#|-0---0---0---0----0---0---0---0----0---0---0---0----0---0---0---0----|
A#|---------------------------------------------------------------------|


G6/A   Dm             Am            C4
I went down among the dust and pollen
Em/G   D/A       Am              G             G6/A
To the old stone fountain in the morning after dawn

     Dm                   Am      C4     Em/G     D/A      Am
Underneath were all these pennies fallen from the hands of children
          G                   G6/A
They were there and then were gone
G6/A Dm   Am    C4     Em/G   D/A     Am
          And I wonder what became of them
G              G6/A
What became of them

D/A      Am         G             F
Sunlight over me no matter what I do
A             E          D
Apples in the summer are golden sweet
A    E         D      G6/A
Everyday a passing complete

    G6/A             Dm               Am               C4       Em/G
A#|----------------------------------------------------------------------|
F |---5---5---5---5----3---3---3---3----1---1---1---1----1---1---0---0---|
C#|----------------------------------------------------------------------|
G#|--5---5---5---5----3---3---3---3----2---2---2---2----3---3---2---2----|
D#|-0---0---0---0----0---0---0---0----0---0---0---0----------------------|
A#|----------------------------------------------------3---3---3---3-----|
    Ohhhhohhhoohhh ...

    D/A              Am               G                G6/A
A#|----------------------------------------------------------------------|
F |---3---3---3---3----1---1---1---1----0---0---0---0----5---5---5---5---|
C#|----------------------------------------------------------------------|
G#|--4---4---4---4----2---2---2---2----0---0---0---0----5---5---5---5----|
D#|-0---0---0---0----0---0---0---0------------2---2----0---0---0---0-----|
A#|-----------------------------------3---3------------------------------|

G6/A    Dm          Am       C4
I'm not one to ever pray for mercy
Em/G  D/A     Am             G               G6/A
Or to wish on pennies in the fountain or the shrine
G6/A     Dm             Am      C4
But that day you know I left my money
Em/G  D/A            Am            G              G6/A
And I thought of you only all that copper glowing fine
G6/A Dm   Am    C4     Em/G   D/A     Am
          And I wonder what became of you
G              G6/A
What became of you

D/A      Am         G             F
Sunlight over me no matter what I do
A             E          D
Apples in the summer are golden sweet
A    E         D
Everyday a passing complete
A             E          D
Apples in the summer are golden sweet
A    E         D
Everyday a passing complete


capo on 3th fret

Am  x02210 C   x32010
F   x33211 G   320003
Em  022000 E   022100
FM7 x33210 FM7*x33200
E*  022200 D   x00232

g|-0--------0--------0--------0----------...
D|-1-1-/0-1-1-1-/0-1-1-1-/0-1-1-1-/0-1-1-...
B|-2-2--2-2-2-2--2-2-2-2--2-2-2-2--2-2-2-...
F|-2-2--2-2-2-2--2-2-2-2--2-2-2-2--2-2-2-...
C|-0--------0--------0--------0----------...
G|---------------------------------------...

   Am /B C   F C   F C   F C     G
g|-0-----0-0---0-0---0-0---0-0-0-3-3-3-3-3-3-3-3-3--|
D|-1-1---1-1-1-1-1-1-1-1-1-1-1-1-0-0-0-0-0-0-0-0-0--|
B|-2-2-2-0-0-2-0-0-2-0-0-2-0-0-0-0-0-0-0-0-0-0-0-0--| while playing the G-chord
F|-2-2-x-2-2-3-2-2-3-2-2-3-2-2-2-0/2-0/2-0/2-0/2-0--| follow the melody on the 3th string
C|-0---2-3-3-3-3-3-3-3-3-3-3-3-3-2-2-2-2-2-2-2-2-2--| with your index finger
G|-------3-3---3-3---3-3---3-3-3-3-3-3-3-3-3-3-3-3--|

   Am    Em    F
g|-0-0---0-0---1-1-1-|
D|-1-1---0-0---1-1-1-|
B|-2-2-2-0-0-0-2-2-2-|
F|-2-2-2-2-2-2-3-3-3-|
C|-0---0-2-2-2-3-3-3-|
G|-----0-0---0-------|

Am                                           /B
In the morning waking up to terrible sunlight
C           F    C          F   C           F   C
All diffuse like skin abuse the sun is half its size
G                             Am         Em
When you talk you hardly even look in my eyes
F                            Am
In the morning, in the morning

Am                                              /B
In the doorway holding every letter that I wrote
C           F   C       F     C         F    C
In the driveway pulling away putting on your coat
G                           Am             Em
In the ocean washing off my name from your throat
F                            Am
In the morning, in the morning

G                           Am             Em
In the ocean washing off my name from your throat
F                            Am
In the morning, in the morning

Am                                                     /B
In the tide, look me in the eye, to never let you stay,
C            F     C              F   C           F   C
In the night time, with the light on, every light all day,
G                           Am       Em
In the ocean, leaving me no time to obey,
F                          Am
In the morning, in the morning,

G                            Am             Em
In the ocean, washing off my name from your throat,
F                          A
In the morning, in the morning.

   A       Asus4  A*
G|------------------|
D|---2---2-----3--5-|
B|---2---------2--6-|
F|---2-2---0------7-|
C|-0--------------0-|
G|------------------|


FM7     FM7* FM7      FM7*FM7  FM7* FM7 FM7* FM
Green apples hang from my tree
E
they belong only to me
FM7     FM7*          FM7*FM7     FM7*FM7  FM7* FM7
Green apples hang from my green apple tree
E      E*     E        E*    E
they belong only to, only to me

FM7      FM7* FM7         FM7* FM7        FM7*FM7
and if i just stay awhile here staring at the sea
E
and the waves break ever closer, ever near to me
FM7        FM7* FM7         FM7*FM7        FM7*FM7
i will lay down in the sand and let the ocean lead
E
carry me to Innisfree like pollen on the breeze

   Am         Asus4      G          Am
g|-----------------------3-----3-/2-0--|
D|-5-----5----3-----3------------------|
B|---5-----5-----2----2----------------|
F|-----7----------------------------2--|
C|-7----------0----------2-----2-------|
G--------------------------------------|

g|----------------------| D Dsus4(x00233)
D|-0---0-----0---1-0----|
B|---2-----2---2-----2--|
F|----------------------|
C|----------------------|
G|----------------------|

saxophone part
FM7 E
(repeat till end of song)


tabbed from several videos of live performances
(kcrw, haldern pop, austin city limits 2011, seattle WA 2011) and the album version
i used some parts of willieadlerwb's tab
i added the third verse of the second part - that is not included on the album version 
but they usually play on stage

additions, live lyrics and new arrangement by alexander rex
Tap to rate this tab
 
# A B C D E F G H I J K L M N O P Q R S T U V W X Y Z