Song name
# A B C D E F G H I J K L M N O P Q R S T U V W X Y Z

Fleet Foxes - Blue Ridge Mountains tab

These are the mandolin tabs for Blue Ridge Mountains

The intro that is repeated throughout the song

E|------2-1-1-2-1-------------------------------------------|
A|2-4-6-----------6-4-6-4-2-4-6-2-----2---------------------|
D|--------------------------------6-4---6-------------------|
G|----------------------------------------------------------|

The fill that comes in the middle of verses

E|----------------------------------------------------------|
A|6-2-------------------------------------------------------|
D|----6-4-6-------------------------------------------------|
G|----------------------------------------------------------|

The staccato riff that is played during the bridge

E|--------------------------4------------------------------|
A|6-6-6-6-6-4-6-6-6-6-6-4-6---6-4--------------------------|
D|--------------------------------6-6-6-6-6-4--------------|
G|---------------------------------------------------------|
Tap to rate this tab
# A B C D E F G H I J K L M N O P Q R S T U V W X Y Z