Song name
# A B C D E F G H I J K L M N O P Q R S T U V W X Y Z

Fleetwood Mac - Jewel Eyed Judy tab

Help us improve GuitareTab! Take a short survey!
This is the solo played over the chords.....in calibration with Chris (my bro)
Chords to song to follow.......

      Legend

    > = bend down/ half bend
    h<= hold bend up until r
    ~~= vibrate
    -22--------2---2---2---4/6--|
  a--2--4------------2--4----4---4----------|
  e-----------------------------------------|

  e-----------------------------------------|
  b--------5~~--7h<-7777r--5---5---55-------|
  g--4--6--------------------6---6----------|
  d-----------------------------------------|
  a-----------------------------------------|
  e-----------------------------------------|

  e---------7---7---------------------------|
  b--7
                
Related for Jewel Eyed Judy tab