Guitaretab - guitar tabs
Song name
# A B C D E F G H I J K L M N O P Q R S T U V W X Y Z

Fleetwood Mac - Rihannon tab

------------------------------------------------------------------------
                                                           Fleetwood Mac-Rihannon
------------------------------------------------------------------------
Tabbed by:Nike-Man
Email:Nike-Man@comcast.net

Tuning: Standard
Pretty Pretty Please Rate
Verse

e|--------------------------------------------------------------------------|
B|---1---3---5---3---1---0-----------0---1---0---0--------------------------|
G|---2---4---5---4---2---0---2---2---0---2---0---0---2----------------------|
D|---------------------------2---3-------------------3----------------------|
A|--------------------------------------------------------------------------|
E|--------------------------------------------------------------------------|
[ Tab from: http://www.guitaretab.com/f/fleetwood-mac/101580.html ]
Guitar Two intro riff 2x
e|--------------------------------------------------------------------------|
B|--------------------------------------------------------------------------|
G|--------------------------------------------------------------------------|
D|--------------------------------------------------------------------------|
A|---0--0-0-0--0-0-0-0-0----------------------------------------------------|
E|--------------------------1--1-1-1--1-1-1-1-1-----------------------------|

Chorus

e|----------------------------------------------------------------------------|
B|-------------------1-----------1--0-----------------------------------------|
G|-0--2--0--x--0--2--0--x--x--0--2--2--0--2--x--0-----------------------------|
D|-2--3--2--x--2--3-----x--x--2--3-----3--x--2--------------------------------|
A|----------------------------------------------------------------------------|
E|----------------------------------------------------------------------------|


Interlude

e|----------------------------------------------------------------------------|
B|---1---0---1---3---1---0----------------------------------------------------|
G|---2---0---2---4---2---0---2------------------------------------------------|
D|---------------------------2------------------------------------------------|
A|----------------------------------------------------------------------------|
E|----------------------------------------------------------------------------|

| /  slide up
| \  slide down
| h  hammer-on
| p  pull-off
| ~  vibrato
| +  harmonic
| x  Mute note
=============================================================
Related for Rihannon tab
Rihannon chords by Fleetwood Mac