Song name
# A B C D E F G H I J K L M N O P Q R S T U V W X Y Z

Fleetwood Mac - I Dont Want To Know tab

Help us improve GuitareTab! Take a short survey!
-------------------------------------------------------------------------------
			     I Don't Want to Know - Fleetwood Mac
-------------------------------------------------------------------------------
Tabbed by:Unkabonka
Tuning:Standard

These opening chords sound good to me, also since they are 6th string root when
you slide up to the open E you don't have to change your fingering. Or you could
be difficult and play B on the 2nd fret, but I don't think it sounds as full,
plus you can hear him on the album slide from the 7th to 2nd.

This sequence is repeated twice at the intro, and again after the solo as the outro.
Also after each phrase ie. "Finally baby..." "The truth has come down now..." throw
in the B, you'll figure out the rhythm.
 (B)(F#)(E)
e|-7--2--0--2--0--2---------------------------------------------------------------|
B|-7--2--0--2--0--2---------------------------------------------------------------|
G|-8--3--1--3--1--3---------------------------------------------------------------|
D|-9--4--2--4--2--4---------------------------------------------------------------|
A|-9--4--2--4--2--4---------------------------------------------------------------|
E|-7--2--0--2--0--2---------------------------------------------------------------|

e|--7--2--0--2--2-------------------------------------------------------------|
B|--7--2--0--2--2-------------------------------------------------------------|
G|--8--3--1--3--3-------------------------------------------------------------|
D|--9--4--2--4--4-------------------------------------------------------------|
A|--9--4--2--4--4-------------------------------------------------------------|
E|--7--2--0--2--2-------------------------------------------------------------|
Related for I Dont Want To Know tab